» » »

Unsigned, Insubordination - No Assistance Required Tabs (ver.1)

Artists:  A B C D E F G H I J K L M N O P Q R S T U V W X Y Z # 

Insubordination - No Assistance Required Tabs (ver.1)

Unsigned Tabs
 Rating:
4/5 (4 votes)
Insubordination - No Assistance Required lessons Tabs too difficult? Try these video lessons and learn fast
1
                This was something we made up while I was angry at a girl

e|-----------------------------------------------------------------------|   x2
B|----------2-0--------------3-2--------------2-0------------------------|
G|--2h3p2p0-----0----2h3p2p0-----0----2h3p2p0-----0-----2h3p2p0----------|
D|---------------------------------------------------------------3-0-3---|
A|-----------------------------------------------------------------------|
D|-----------------------------------------------------------------------|

e|---------------------------------------|
B|---------------------------------------|
G|---------------------------------------|
D|--3-0-5--3-0-5-10-7--3-0-5--3-0-1-0-7--|
A|--3-0-5--3-0-5-10-7--3-0-5--3-0-1-0-7--|
D|--3-0-5--3-0-5-10-7--3-0-5--3-0-1-0-7--|

e|--------------------------|  x2
B|--------------------------|
G|--------------------------|
D|--------------------------|
A|--------------------------|
D|--0-0h8-0h8-0h8-8-7-------|
It sounds like TOOL I know but I think theres a bit of variation from 'The Patient'
            
Submit corrections

comments powered by Disqus
↑ Back to top | Unsigned Tabs for Insubordination - No Assistance Required. Lyrics for acoustic guitar and electric guitar. 1 Tablatures and chords are parodies/interpretations of the original songs. You may use it for private study, scholarship, research or language learning purposes only