» » »

Instruments Playing People - Mirage Tabs (ver.1)

Artists:  A B C D E F G H I J K L M N O P Q R S T U V W X Y Z # 

Instruments Playing People - Mirage Tabs (ver.1)

Unsigned
Rating:
0/5 (0 votes)

Hard to play? Try these video lessons and learn fast.
                Intro: X2 (Play this nice and slow)

	Em			Am		Em		
e----------------------------------------------------------
b---------------------1— 1p0-------------------------------
g------0----0-------2------------0----0---------2---2------
d----2----2---2---2----2-------2----2----2----0------------
a--2----2---2----------------2----2----2----0----0---------
E----------------------------------------------------------



Strum: / = Down \ = Up
This is a little weird, but cool sounding if you play it quick. For the end part, where it’s like 3—1—0—1—0, you can let the other strings ring in, you don’t just have to play the B string.

Verse: (FAST!!!!) Repeated a Lot

    /    /  \   /  /  \  /   /    /   / / \ / /      
e--------0--0---0--0--0--0--------0---------------
b--------0--0---1--1--1--1--------0---3-1-0-1-0---
g--------0--0---2--2--2--2--------0---------------
d--------2------2--2--2--2--------2---------------
a---2-2--2------0--0--0--0---2-2--2---------------
E---0-0--0------0--0--0--0---0-0--0---------------


I am working on a chorus for the song right now, and an outro. Please rate and tell me what you think.
            
Hard to play? Try these video lessons and learn fast. | Correct




comments powered by Disqus
↑ Back to top | Tablatures and chords are parodies/interpretations of the original songs. You may use it for private study, scholarship, research or language learning purposes only