» » »

Insecure Gnomes - Nameless Bass tabs (ver.1)

Artists:  A B C D E F G H I J K L M N O P Q R S T U V W X Y Z # 

Insecure Gnomes - Nameless Bass tabs (ver.1)

Unsigned
Rating:
0/5 (0 votes)

Hard to play? Try these video lessons and learn fast.
                This isnt done yet, but we will look it over a few times until we have our finished touch. hope u like it.
0-0-0-0-5-0-4-0-3-0-0-0-0-5-0-4-0-6-0-0-0-0-5-0-4-0-3-2-1-----------------------------------                                                                                          

---------------------------------------------0-0-0-0-5-0-4-0-3-0-0-0-0-5-0-4-0-6-5-4-3-5-4-3----
0-0-0-0-5-0-4-0-3-0-0-0-0-5-0-4-0-6----------------------------------------------------------------

--------------------------------11-11-11-11-9-9-9-9-7-7-7-7-7-7-9-9-9-9----------------- x2
---------------------------------9—9—9—9-7-7-7-7-5-5-5-5-5-5-7-7-7-7----------------
5-4-3-5-4-3-5-4-3-5-4-3----------------------------------------------------------------------

0-3-0-4-0-3-0-5-0-3-0-6-5-3-0-3-0-4-0-3-0-5-0-3-0-6-5-6-5-6-5-3

0-3-0-7-8-7-8-7-6------------------------------------------8-7-6----------------------------------
----------------------0-3-0-7-8-7-8-7-6---------------8-7------------------------------------------
--------------------------------------------0-3-0-7-8-7------------------------------------3-0------

------------------------------------------------------------3-0--------------------------------------
----------------------3-0-----------------------------3-0-------------------------------------------
0-3-0-0-3-0-0-3-0------3-0--0-3-0-0-3-0-0-3-0-----------0-3-0-0-3-0---------------------

-------------------------------------------------------------0-3-3-3---------3-2-----------------
------0-----0-----0------3------3-----3--------0--3-3-3-----------------------3-2--------------
0-3----0-3---0-3--0-3----0-3---0-3---3-3-3---------------------------------------3-2-0-------
            
Hard to play? Try these video lessons and learn fast. | Correct




comments powered by Disqus
↑ Back to top | Tablatures and chords are parodies/interpretations of the original songs. You may use it for private study, scholarship, research or language learning purposes only