» » »

Unsigned, Ingrown Identity - Driven Away Bass tabs (ver.1)

Artists:  A B C D E F G H I J K L M N O P Q R S T U V W X Y Z # 

Ingrown Identity - Driven Away Bass tabs (ver.1)

Unsigned Tabs
 Rating:
4/5 (4 votes)
Ingrown Identity - Driven Away lessons Tabs too difficult? Try these video lessons and learn fast
                Bassist: Matt Carlisle 


-------3\6---------3/1---------3\6----------3/1-------3\6---------3/1---------3\6----------3/1~~
3--3--------3--3--------3--3--------3--3-------3--3--------3--3--------3--3--------3--3---------

--------------------3-3-3-3-3-3-3-3-6-6-6-6-6-6-6-6---------------------------------------------
3-3-3-3-3-3-3-3-----------------------------------------6-6-6-6-6-6-6-6-------------------------

----------------------3---3---3---3---6---6---6---6------------------------------------------------
3---3---3---3---------------------------------------------6---6---6---6----------------------------

--------------------3-3-3-3-3-3-3-3-6-6-6-6-6-6-6-6---------------------------------------------
3-3-3-3-3-3-3-3-----------------------------------------6-6-6-6-6-6-6-6-------------------------

----------------------3---3---3---3---6---6---6---6------------------------------------------------
3---3---3---3---------------------------------------------6---6---6---6----------------------------

--------------------3-3-3-3-3-3-3-3-6-6-6-6-6-6-6-6---------------------------------------------
3-3-3-3-3-3-3-3-----------------------------------------6-6-6-6-6-6-6-6-------------------------

----------------------------------------6-6-6-6-6-6-6-6-3-3-3-3-3-3-3-3------------------------
3-3-3-3-3-3-3-3-6-6-6-6-6-6-6-6----------------------------------------------------------------

-----------------------------------------------33333333444455550000000011112222------------------------
33333333444455550000000011112222-----------------------------------------------------------------------


----------------------3---3---3---3---6---6---6---6------------------------------------------------
3---3---3---3---------------------------------------------6---6---6---6----------------------------

--------------------3-3-3-3-3-3-3-3-6-6-6-6-6-6-6-6---------------------------------------------
3-3-3-3-3-3-3-3-----------------------------------------6-6-6-6-6-6-6-6-------------------------

----------------------------------------6-6-6-6-6-6-6-6-3-3-3-3-3-3-3-3------------------------
3-3-3-3-3-3-3-3-6-6-6-6-6-6-6-6----------------------------------------------------------------

----------------------------------------6-6-6-6-6-6-6-6-----------------3~~----------------------
3-3-3-3-3-3-3-3-6-6-6-6-6-6-6-6-------------------------------------------------------3~~--------
            
Submit corrections

comments powered by Disqus
↑ Back to top | Unsigned Bass for Ingrown Identity - Driven Away. Lyrics for acoustic guitar and electric guitar. Tablatures and chords are parodies/interpretations of the original songs. You may use it for private study, scholarship, research or language learning purposes only