>
 >
Independant Nation - No Reason

Independant Nation - No Reason Guitar Tabs

Unsigned - Independant Nation - No Reason chords, tabs, tablatures, lyrics

Guitar lessons | Add/correct | Request | Top 50 tabs Artists:  A B C D E F G H I J K L M N O P Q R S T U V W X Y Z 0-9

Independant Nation - No Reason Guitar Tabs – Unsigned

CD, Sheet music, Poster

Do you like Independant Nation - No Reason? Share with your friends now
Tabs
No reason

% = Pause
= pickslide
^ = Palmmute

intro
Guitar one

X
X
X----------77777777-----------9999999
X-44444444-77777777--77777777-9999999
X-44444444-55555555--77777777-7777777 x2                                            X-22222222 --------- 55555555-----------         

X-------------------------------------------------------------
X----------------------------------------------------------------
X-----------------------------------------------------------------
X------------------------------------------------------------
X-04-2-----2-2-------04-5-7-5-4-20-0-4-5-2--2
X-22---------0---4-5-2-2------------ 2-2-----0---4-2


Verse:

X---------
X----------
X---7----9-
X-4-7-7-9   X4
X-4-5-7-7
X-2----5----

G2
X---------------------------------------
X---------------------------------------
X-------------------------------
X-------------------------------------------------------------
X-------------55555555-77777777
X-2222222---------------------------77777777

Chorus
X
X
X----------77777777---------------9999999
X-44444444-77777777------77777777-9999999
X-44444444-55555555------77777777-7777777 x2
X-22222222 --------------55555555-----------


G2 plays intro for chorus

Play intro again

Play verse again

Play chorus again

Then play this
Solo:
X---------------------------------------
X------------------------------------------
X-------------------------------------------
X----------------------------------------------
X04-22--2--------04-5---2--2---------04-5-7-9-11-12
X-22---------0---4-5-2--2----------0---4-22-2---------------

G2 play chorus P.M for the solo
Then
. Pick screeches

Play chorus again x2





Comments


Popular Unsigned tabs & chords
Eternal Chaos - All Alone Bass Tabs
No Name - British Guy Bass Tabs
Rift- Down The Bunny Hole Bass Tabs
Zero Xpectations - Lifes Hard Bass Tabs
Cross Town Rivals-I Want Tabs
Dire Mien-Its Time Tabs
Dominant Chopsticks- Smile Tabs
Forever Falls Tomorrow Tabs
Hardwood-Papermate Tabs
Inspector Gadget Theme Tabs


Song lyrics



↑ Back to top | Tablatures and chords are parodies/interpretations of the original songs. You may use it for private study, scholarship, research or language learning purposes only
© 2014 AZChords.com Contact us | Privacy policy | DMCA | Add/correct tabs | Request tabs | Top 50 tabs