» » »

Unsigned, Hymlick Manuver- Shove It Tabs (ver.1)

Artists:  A B C D E F G H I J K L M N O P Q R S T U V W X Y Z # 

Hymlick Manuver- Shove It Tabs (ver.1)

Unsigned Tabs
 Rating:
4/5 (4 votes)
Hymlick Manuver- Shove It lessons Tabs too difficult? Try these video lessons and learn fast
                








                                                                                ~~
|-------12--------12--------12--------------------------------------------------12-||---|
|-10-10-----10-10-----10-10-----10-10-11--------11--------11--------11-11-10-10----||o--|
|-----------------------------------------10-10-----10-10-----10-10----------------||---|
|----------------------------------------------------------------------------------||---|
|----------------------------------------------------------------------------------||o--|
|----------------------------------------------------------------------------------||---|


|---------------------------||--|
|--------------------------o||--|
|---------------------------||--|
|-7-7-7-5-5-5-3-3- 3-/4-4-4--||--|
|-7-7-7-5-5-5-3-3--3- 4-4-4-o||--|
|-5-5-5-3-3-3-1-1--1- 2-2-2--||--|



Legend
------

h = hammer-on; p = pull-off; b = bend; r = bend release; / = slide up/down; [5] = nat. harmonic; <5> = art. harmonic; ~ = vibrato; tr = trill; T = tap; TP = trem. picking; PM = palm muting; | = bar; || = double bar; ||o = repeat start; *|| = repeat end; *| = double bar (end); : = bar (freetime); d = tremolo bar dive; u = tremolo bar up; = = hold (bend or tremolo bar)
            
Submit corrections

comments powered by Disqus
↑ Back to top | Unsigned Tabs for Hymlick Manuver- Shove It. Lyrics for acoustic guitar and electric guitar. Tablatures and chords are parodies/interpretations of the original songs. You may use it for private study, scholarship, research or language learning purposes only