» » »

Unsigned, House Arrest - Trapped Inside Tabs (ver.1)

Artists:  A B C D E F G H I J K L M N O P Q R S T U V W X Y Z # 

House Arrest - Trapped Inside Tabs (ver.1)

Unsigned Tabs
Rating:
0/5 (0 votes)
House Arrest - Trapped Inside lessons Tabs too difficult? Try these video lessons and learn fast
                
Guitarist - Anthony Cooke
	

	Questions/comments e-mail me, first tab, plz rate!!!

	Pretty easy song, fun to play!!



Intro: Palm Mute first two of each set of chords

e|----------------------------------------|
B|----------------------------------------|
G|----------------------------------------|
D|----11-11-11--9-9-9--13-13-13--14-14-14-| (x2)
A|----11-11-11--9-9-9--13-13-13--14-14-14-|
E|----9--9--9---7-7-7--11-11-11--12-12-12-|
  PM  .....     ...    .....     .....


Verse: Strumming pattern for every set of three chords: Down-Down-Up 

e|--------------------------------------------------------------------------|
B|--------------------------------------------------------------------------|
G|--------------------------------------------------------------------------|
D|----11-11-11-11-11-11--9-9-9-9-9-9--13-13-13-13-13-13--14-14-14--13-13-13-| (x4)
A|----11-11-11-11-11-11--9-9-9-9-9-9--13-13-13-13-13-13--14-14-14--13-13-13-|
E|----9--9--9--9--9--9---7-7-7-7-7-7--11-11-11-11-11-11--12-12-12--11-11-11-|


Chorus: Strumming Pattern for each three chords: Down-Down-Up
 |___________________________________(x4)___________________________________|
e|--------------------------------------------------------------------------|
B|--------------------------------------------------------------------------|
G|----11-11-11-11-11-11--9-9-9-9-9-9----------------------------------------|
D|----11-11-11-11-11-11--9-9-9-9-9-9--9-9-9-9-9-9--11-11-11-11-11-11--------| 
A|----9--9--9--9--9--9---7-7-7-7-7-7--9-9-9-9-9-9--11-11-11-11-11-11--------|
E|------------------------------------7-7-7-7-7-7--9--9--9--9--9--9---------|


Outro: Play Intro two times (Total of four)

Song Order:

Intro

Verse 

Chorus

Verse 

Chorus

Verse

Chorus

Outro
            

comments powered by Disqus
↑ Back to top | Unsigned Tabs for House Arrest - Trapped Inside. Lyrics for acoustic guitar and electric guitar. Tablatures and chords are parodies/interpretations of the original songs. You may use it for private study, scholarship, research or language learning purposes only