» » »

Unsigned, Homespun - Outside Your Window Bass tabs (ver.1)

Artists:  A B C D E F G H I J K L M N O P Q R S T U V W X Y Z # 

Homespun - Outside Your Window Bass tabs (ver.1)

Unsigned Tabs
Rating:
0/5 (0 votes)
Homespun - Outside Your Window lessons Tabs too difficult? Try these video lessons and learn fast
                Normal Tuning

(INTRO-Pt. 1)
G |----------------------------------------
D |-------------------------------5-5-5-5--    (x4)
A |---3-3-3-3-3-5-5-5-5-5-7-7-7-7----------
E |----------------------------------------

(INTRO-Pt. 2)
G |---5---7---5---4----
D |-----5---5---5---5--    (x8)
A |--------------------
E |--------------------

(INTRO-Pt. 3)
G |------------------------------------
D |---2-2-2-2-3-3-3-3------------------   (x4)
A |-------------------3-3-3-3-5-5-5-5--
E |------------------------------------

(VERSE)
G |--------------------------------------------------------------------
D |--------------------------------------------------------------------   (x2)
A |--------------------------------------------------------------------
E |---5-5-5-5-5-5-5-5-5-5-5-5-5-5-5-5-7-7-7-7-7-7-7-7-3-3-3-3-3-3-3-3--

(INTERLUDE)
G |------------------------------------
D |---2-2-2-2-3-3-3-3------------------   (x4)
A |-------------------3-3-3-3-5-5-5-5--
E |------------------------------------

(VERSE)

(CHORUS-Pt. 1)-x2
G |----------------------------------------------------------------------------------
D |----------------------------------------------------------------------------------
A |-------------------8-8-8-8-8-8-8-8-10-10-10-10-10-10-10-10------------------------
E |---8-8-8-8-8-8-8-8-----------------------------------------10-10-10-10-10-10-10-10
(CHORUS-Pt. 2)
G |--------------------------------------------------------------------
D |--------------------------------------------------------------------   (x1)
A |-------------------8-8-8-8-8-8-8-8-6-6-6-6-6-6-6-6-9-9-9-9-9-9-9-9--
E |---8-8-8-8-8-8-8-8--------------------------------------------------
(CHORUS-Pt. 1)-x1

(INTERLUDE)
(VERSE)
(DURING GUITAR SOLO)
G |----------------
D |---3~-2~--------   (x8)
A |---------3~-5~--
E |----------------

(CHORUS-Pt. 1)-x2
(CHORUS-Pt. 2)-x1    (x2)
(CHORUS-Pt. 1)-x1
            

comments powered by Disqus
↑ Back to top | Unsigned Bass for Homespun - Outside Your Window. Lyrics for acoustic guitar and electric guitar. Tablatures and chords are parodies/interpretations of the original songs. You may use it for private study, scholarship, research or language learning purposes only