» » »

Unsigned, Homespun- Basic Mistakes Bass tabs (ver.1)

Artists:  A B C D E F G H I J K L M N O P Q R S T U V W X Y Z # 

Homespun- Basic Mistakes Bass tabs (ver.1)

Unsigned Tabs
4/5 (4 votes)
Homespun- Basic Mistakes lessons Tabs too difficult? Try these video lessons and learn fast
                Normal Tuning

G |-------------------------
D |-------------------------
A |------3~-2~-0~-2~-3~-----
E |---3~----------------3~--

G |----------------------------------------------------
D |----------------------------------------------------  (x2)
A |-----3-2-0-2-3---3-2-0-2-3---3-2-0-2-3--------------
E |---3-----------3-----------3-----------3-3-3-3-3-3--

G |-------------------------------------------------------
D |-------------------------------------------------------
A |-----------3-3-3-3-2-2-2-2-0-0-0-0-2-2-2-2-3-3-3-3-----
E |---3-3-3-3-----------------------------------------3~--


G |-----3-2-0-2-3---3-2-0-2-3---3-2-0-2-3--------------
D |---3-----------3-----------3-----------3-3-3-3-3-3--
A |----------------------------------------------------
E |----------------------------------------------------

Submit corrections

comments powered by Disqus
↑ Back to top | Unsigned Bass for Homespun- Basic Mistakes. Lyrics for acoustic guitar and electric guitar. Tablatures and chords are parodies/interpretations of the original songs. You may use it for private study, scholarship, research or language learning purposes only