» » »

Unsigned, Homeless Hobos - Play The Show Bass tabs (ver.1)

Artists:  A B C D E F G H I J K L M N O P Q R S T U V W X Y Z # 

Homeless Hobos - Play The Show Bass tabs (ver.1)

Unsigned Tabs
 Rating:
4/5 (4 votes)
Homeless Hobos - Play The Show lessons Tabs too difficult? Try these video lessons and learn fast
                Instrument: Bass
Tuning: EADG

Key: < Crescendo

Intro
G|--123210|--12321-|--123210|--12321-|
D|22------|22------|00------|00------|
A|--------|--------|--------|--------|
E|--------|--------|--------|--------|

G|--123210|--12321-|--123210|--12325-|
D|22------|22------|00------|00------|
A|--------|--------|--------|--------|
E|--------|--------|--------|--------|

Break
G|------9-|-----9-9|
D|--9---7-|--9--7-7|
A|--7-----|--7-----|
E|00--00--|00--0-0-|x2

Verse
G|9-------|2-------|5-------|7-------|
D|7-777777|0-000000|3-333333|5-555555|
A|--------|--------|--------|--------|
E|--------|--------|--------|--------|

                             <<<<<<<<
G|9-------|2-------|5-------|77777777|
D|7-777777|0-000000|3-333333|55555555|
A|--------|--------|--------|--------|
E|--------|--------|--------|--------|

Break

Verse

Chorus
G|99999999|--------|--------|--------|
D|77777777|99999999|--------|99999999|
A|--------|77777777|99999999|77777777|
E|--------|--------|77777777|--------|

G|99999999|--------|--------|--------|
D|77777777|99999999|--------|9-9-9-9-|
A|--------|77777777|99999999|7-7-7-7-|
E|--------|--------|77777777|--------|

Break

Verse

Chorus

Bass Solo
G|--------|--------|--------|--------|
D|--------|--------|--------|--------|
A|--------|--------|--------|--------|
E|00456543|0045654-|00456543|0045659-|x2

Chorus x2

Outro
G|------99|-----910|
D|-99---77|-99--79-|
A|-77-----|-77-----|
E|0----0--|0---0---|x4

End on Note E-0. Hold for 4 bars.
            
Submit corrections

comments powered by Disqus
↑ Back to top | Unsigned Bass for Homeless Hobos - Play The Show. Lyrics for acoustic guitar and electric guitar. Tablatures and chords are parodies/interpretations of the original songs. You may use it for private study, scholarship, research or language learning purposes only