» » »

Unsigned, Homeland - Ensure A Call Tabs (ver.1)

Artists:  A B C D E F G H I J K L M N O P Q R S T U V W X Y Z # 

Homeland - Ensure A Call Tabs (ver.1)

Unsigned Tabs
 Rating:
4/5 (4 votes)
Homeland - Ensure A Call lessons Tabs too difficult? Try these video lessons and learn fast
1
                Intro:
E---2---------3--------5--------3-------2-------
B---3--x2-----4--x2----6--x2----4--x2---3--x2--
G---2---------3--------5--------3-------2-------
D-------------------------------------------------
A-------------------------------------------------
E--------------------------------------------------

Chorus:
E--2--------2--------0--------2----------2--------0----------0--------3-------0--------0------------
B--3--x7----2--x7----0--------2----------3--x7----3--x7------3--x7----3--x7---0--------0------------
G--2--------2--------0--x7----2----x7----0--------2----------0--------3-------0--x7----1---x7------
D--0--------0--------2--------0----------0--------0----------0----------------2--------2------------
A--------------------0---------------------------------------0----------------2--------2-----------
E--------------------0--------------------------------------------------------0--------0-----------

Verse:
E---------0--0--------------------
B------8--------8-------5--5-----
G---6-------------6-----------5--   x4
D---------------------------------
A---------------------------------
E---------------------------------

Outro:
E--2--------2--------0--------2----------x-------2--------0-------------
B--3--x7----2--x7----0--------2----------x-------3--x7----3--x7--------
G--2--------2--------0--x7----2----x7----x-------0--------2-------------
D-----------0--------2--------0----------x-------------------------------
A--------------------0-------------------x-------------------------------
E--------------------0-------------------x-------------------------------
            
Submit corrections

comments powered by Disqus
↑ Back to top | Unsigned Tabs for Homeland - Ensure A Call. Lyrics for acoustic guitar and electric guitar. 1 Tablatures and chords are parodies/interpretations of the original songs. You may use it for private study, scholarship, research or language learning purposes only