» » »

Unsigned, His Girl Friday - Encounters Bass tabs (ver.1)

Artists:  A B C D E F G H I J K L M N O P Q R S T U V W X Y Z # 

His Girl Friday - Encounters Bass tabs (ver.1)

Unsigned Tabs
 Rating:
4/5 (4 votes)
His Girl Friday - Encounters lessons Tabs too difficult? Try these video lessons and learn fast
1
                Standard tuning ( E A D G)

intro
--------/------/-------/------]
--------/------/-------/------]
--4---4-/5----5/-------/------]
--------/------/-5----5/-2--3-]

pre chorus

---------/----------/---------/---------]
---------/----------/---------/---------]
-5-5-5-5-/-7-7-7-7--/---------/---------]
---------/----------/-5-5-5-5-/-2-2-3-3-]

chorus

---------/---------/---------/----------]
---------/---------/---------/----------]
-2-2-2-2-/-5-5-5-5-/---------/----------]
---------/---------/-5-5-5-5-/-2-3------]

finish on
---
---
-2-
---
            
Submit corrections

comments powered by Disqus
↑ Back to top | Unsigned Bass for His Girl Friday - Encounters. Lyrics for acoustic guitar and electric guitar. 1 Tablatures and chords are parodies/interpretations of the original songs. You may use it for private study, scholarship, research or language learning purposes only