» » »

Unsigned, Hindsight 20/20 - Simple-Minded Tabs (ver.1)

Artists:  A B C D E F G H I J K L M N O P Q R S T U V W X Y Z # 

Hindsight 20/20 - Simple-Minded Tabs (ver.1)

Unsigned Tabs
 Rating:
4/5 (4 votes)
Hindsight 20/20 - Simple-Minded lessons Tabs too difficult? Try these video lessons and learn fast
                Hindsight 20/20
/ = palm mute
(#) = how many times to play riff
h = hammer down

Intro(x2)
(heavy dist.)
E------------------------------------------------------------------------------------
B------------------------------------------------------------------------------------
G-7----------10---------- 9--------- 5-----------------------------------------------
D-7---7h5----10---10h8---9---5h7-----5---8h10---------(x2)---------------------------
A-5-----------8-----------7--------- 3-----------------------------------------------
E------------------------------------------------------------------------------------

1st Verse(x4)
E------------------------------------------------------------------------------------
B------------------------------------------------------------------------------------
G-7-//-7-//----------10-//-10-//----------9-//-9-//----------5-//-5-//---------------
D-7-//-7-//---7-5----10-//-10-//---10-8---9-//-9-//---5-7----5-//-5-//---8-10----(x4)
A-5-//-5-//-----------8-//-8--//----------7-//-7-//----------3-//-3-//--------------
E------------------------------------------------------------------------------------

2nd Verse(x4)
E------------------------------------------------------------------------------------
B------------------------------------------------------------------------------------
G-7-7-7-7-7-7----------10-10-10-10-10-10------------9-9-9-9-9-9----------------------
D-7-7-7-7-7-7---7-5----10-10-10-10-10-10----10-8----9-9-9-9-9-9---5-7---(cont)-------
A-5-5-5-5-5-5-----------8--8--8--8--8--8------------7-7-7-7-7-7----------------------
E------------------------------------------------------------------------------------

2nd Verse(cont)
E------------------------------------------------------------------------------------
B------------------------------------------------------------------------------------
G-5-5-5-5-5-5------------------------------------------------------------------------
D-5-5-5-5-5-5---8-10----------(x4)---------------------------------------------------
A-3-3-3-3-3-3------------------------------------------------------------------------
E------------------------------------------------------------------------------------

3rd Verse(x4)
E------------------------------------------------------------------------------------
B------------------------------------------------------------------------------------
G-7-7-7-7-7-7-7-7---10-10-10-10-10-10-10-10---9-9-9-9-9-9-9-9---5-5-5-5-5-5-5-5------
D-7-7-7-7-7-7-7-7---10-10-10-10-10-10-10-10---9-9-9-9-9-9-9-9---5-5-5-5-5-5-5-5------
A-5-5-5-5-5-5-5-5----8--8--8--8--8--8--8--8---7-7-7-7-7-7-7-7---3-3-3-3-3-3-3-3------
E------------------------------------------------------------------------------------

4th Verse
E------------------------------------------------------------------------------------
B------------------------------------------------------------------------------------
G-7-////////---10-////////---9-////////---5-////////---------------------------------
D-7-///////----10-////////---9-////////---5-////////----------(x2)-------------------
A-5-///////-----8-////////---7-////////---3-////////---------------------------------
E------------------------------------------------------------------------------------

2nd Verse(x2)
3rd Verse(x2)

Outro

E------------------------------------------------------------------------------------
B------------------------------------------------------------------------------------
G-7---10---9---5------------------2-4-2----------------------------------------------
D-7---10---9---5---10-8-7-5-3-2--------2---------------------------------------------
A-5----8---7---3---------------------------------------------------------------------
E------------------------------------------------------------------------------------
            
Submit corrections

comments powered by Disqus
↑ Back to top | Unsigned Tabs for Hindsight 20/20 - Simple-Minded. Lyrics for acoustic guitar and electric guitar. Tablatures and chords are parodies/interpretations of the original songs. You may use it for private study, scholarship, research or language learning purposes only