» » »

Hindered Youths - Four Leaf Clover Tabs (ver.1)

Artists:  A B C D E F G H I J K L M N O P Q R S T U V W X Y Z # 

Hindered Youths - Four Leaf Clover Tabs (ver.1)

Unsigned
Rating:
0/5 (0 votes)

Hard to play? Try these video lessons and learn fast.
                --------------------------------------------
-------------------------------------------- Main Verse
2-2-2-2-2-2-------------------------6-6-4-4-
2-2-2-2-2-2-2-2-2-2-2-2-4-4-4-4-4-4-6-6-4-4-
0-0-0-0-0-0-2-2-2-2-2-2-4-4-4-4-4-4-4-4-2-2-
------------0-0-0-0-0-0-2-2-2-2-2-2---------
A           E           F#          C#  B

Chorus

-------------------------Never found a 4 leaf clover
---------------------------\------------------------
5-5--------------7-7--------\-----------------------
5-5-"Sall Right"-7-7-"Rover"-7-7-7-7-7-7-5-5-5-5-5-5
3-3--------------5-5---------7-7-7-7-7-7-5-5-5-5-5-5
-----------------------------5-5-5-5-5-5-3-3-3-3-3-3
            
Hard to play? Try these video lessons and learn fast. | Correct




comments powered by Disqus
↑ Back to top | Tablatures and chords are parodies/interpretations of the original songs. You may use it for private study, scholarship, research or language learning purposes only