» » »

Unsigned, H-Es - Hitler Stole My Potato Tabs (ver.1)

Artists:  A B C D E F G H I J K L M N O P Q R S T U V W X Y Z # 

H-Es - Hitler Stole My Potato Tabs (ver.1)

Unsigned Tabs
Rating:
0/5 (0 votes)
H-Es - Hitler Stole My Potato lessons Tabs too difficult? Try these video lessons and learn fast
                `~--|\_Band: Half-Eaten Sandwich_/|--~`
`~--|\_Name: Hitler Stole My Potato_/|--~`


~=Let it ring.
\=Slide down.

Intro:
e|-------------------------------------------|
B|-------------------------------------------|
G|-------------------------------------------|
D|-0-0--12-10--0-0--10-8--0-0--8-6--0-0--3-5~|
A|-0-0--12-10--0-0--10-8--0-0--8-6--0-0--3-5~|
E|-0-0--12-10--0-0--10-8--0-0--8-6--0-0--3-5~|

Verse:
e|----------------|
B|----------------|
G|----------------|
D|3333222266665555|
A|3333222266665555|
E|3333222266665555|

Transition1:
e|----------|
B|----------|
G|----------|
D|5555555555|
A|5555555555|
E|5555555555|

Transition2:
e|----------|
B|----------|
G|----------|
D|----------|
A|4444444444|
E|2222222222|


Chorus:
e|------------|
B|------------|
G|------------|
D|------------|
A|2-2-4-4-5-5-|
E|0-0-2-2-3-3-|

Solo:
e|-12--12-12-10--10-10-8--8-8-6--6-6-\3—5~-|
B|-----------------------------------------|
G|-----------------------------------------|
D|-----------------------------------------|
A|-----------------------------------------|
E|-----------------------------------------|

Structure:
-Intro x1
-Verse x8
-Transition1 x1
-Chorus x6
-Transition2 x1
-Verse x8
-Transition1 x1
-Chorus x6
-Transition2 x1
-Verse x8
-Transition1 x1
-Solo x4
            

comments powered by Disqus
↑ Back to top | Unsigned Tabs for H-Es - Hitler Stole My Potato. Lyrics for acoustic guitar and electric guitar. Tablatures and chords are parodies/interpretations of the original songs. You may use it for private study, scholarship, research or language learning purposes only