» » »

Herby - Have A Good Day Bass tabs (ver.1)

Artists:  A B C D E F G H I J K L M N O P Q R S T U V W X Y Z # 

Herby - Have A Good Day Bass tabs (ver.1)

Unsigned
Rating:
0/5 (0 votes)

Hard to play? Try these video lessons and learn fast.
                Herby 
Have a good day
sam snedeker
Intro
G-0-0-3-5-8-7-0-0-3-5-8-7-0-0-3-5-8-7-8-7-8-7-5-3-0
D--------------------------------------------------
A-------------------------------------------------
E---------------------------------------------------

G-0-3-5-8-7--------------
D-----------5-4-0-0-2-5-4 repeat to beginning
A------------------------
E------------------------
Chorus
G-3-3-3-3-3-3-3-3-5-5-5-5-5-5-5-5-8-8-8-8-8-8-8-8-7-7-7-7-7-7-7-7
D----------------------------------------------------------------
A----------------------------------------------------------------
E----------------------------------------------------------------

G-0-0-0-0-0-0-0-0-3-3-3-3-3-3-3-3-5-5-5-5-5-5-5-5-
D-------------------------------------------------
A-------------------------------------------------
E-------------------------------------------------

G-----------------------------------------0-0-0-0-2-2-2-2-
D-5-5-5-5-4-4-4-4-2-2-2-2-0-0-0-0-2-2-2-2-----------------
A---------------------------------------------------------
E---------------------------------------------------------

G-3-3-3-3-5-5-5-5-8-8-8-8-7-7-7-7-7-7-7-7- Now repeat to the begining of the chorus
D-----------------------------------------When you finish it again go to the very
A------------------------------------------beginning play it twice and play chorus to
E--------------------------------------------the end.
            
Hard to play? Try these video lessons and learn fast. | Correct




comments powered by Disqus
↑ Back to top | Tablatures and chords are parodies/interpretations of the original songs. You may use it for private study, scholarship, research or language learning purposes only