» » »

Unsigned, Hellfire - Hellfire Bass tabs (ver.1)

Artists:  A B C D E F G H I J K L M N O P Q R S T U V W X Y Z # 

Hellfire - Hellfire Bass tabs (ver.1)

Unsigned Tabs
 Rating:
4/5 (4 votes)
Hellfire - Hellfire lessons Tabs too difficult? Try these video lessons and learn fast
                8/28/03 Nobody is gunna read this anyway, so I won't write any more.

Lynx an Zof's intro
G----------------------------
D----------------------------
A----------------------------
E--55----666----777----888---

Verse
G--------------------
D------------77-66-55
A--55---55-----------
E--------------------

Main Part
G-----------------------------------
D-----------------------------------
A-----------------------------7766-5
E--555--777--55-6----555--777-------

Fade-out riff
G-----------------!--------------!----------------!-----------------!
D-----------------!--------------!----------------!-----------------!
A--5-7--5-6--5-87-!--5-7--5-6--87!--5-7--5-6--5-87!--5-7--5-6--876-5!
E-----------------!--------------!----------------!-----------------!
            
Submit corrections

comments powered by Disqus
↑ Back to top | Unsigned Bass for Hellfire - Hellfire. Lyrics for acoustic guitar and electric guitar. Tablatures and chords are parodies/interpretations of the original songs. You may use it for private study, scholarship, research or language learning purposes only