» » »

Unsigned, Hate Dementia - Killjoy Bass tabs (ver.1)

Artists:  A B C D E F G H I J K L M N O P Q R S T U V W X Y Z # 

Hate Dementia - Killjoy Bass tabs (ver.1)

Unsigned Tabs
 Rating:
4/5 (4 votes)
Hate Dementia - Killjoy lessons Tabs too difficult? Try these video lessons and learn fast
                Legend 
    ..  - palm mute         
     /  - slide up to
     \  - slide down to      
     h  - hammer on                       Bends
     p  - pull off            f - full bend    h - half bend
     b  - bend                r - release      t - tap bend
     ph - pinch harmonic     ~  - vibrato      ~ - vibrato bend
     *  - see comment           
     X  - percussion mute       
     @  - slight palm mute     
     () - ghost note, sustained note


Tuning: C F Bb Eb

   <Intro>
Eb|----------------------------|
Bb|----------------------------|
 F|---------------------7-5----|
 C|3-2-2--2-2--2--2--2------7-5| (x3)
   
Eb|--------------------------------|
Bb|--------------------------------|
 F|--------------------------------|
 C|0-3/5-55-5-5\3\2--0-3/5-55-5-5/7| (x2)

   <Verse>
Eb|-----------------------------------------------------|
Bb|4-4-4-4444-4-4-44-8-8-8-8888-8-8-88-7-7-7-7777-7-7-77|
 F|-----------------------------------------------------|
 C|-----------------------------------------------------|

Eb|---------------------------------------|
Bb|---------------------------------------|
 F|---------------------------------------|
 C|2-2-2-2-2-2-2-2-2-2-2-2-2-2-2-2-2-2-2-2|
   . . . .   . . . .   . . . .   . . . .

   <Bridge>
Eb|----------------| 
Bb|------------1---|
 F|1---2---1-------|
 C|----------------| (x8)

   <Outro>
Eb|---------|  
Bb|---------|
 F|---------|
 C|2---2---0| (x1)

  --Pattern--
     Intro
     Verse
     Bridge
     Verse
     Outro
            
Submit corrections

comments powered by Disqus
↑ Back to top | Unsigned Bass for Hate Dementia - Killjoy. Lyrics for acoustic guitar and electric guitar. Tablatures and chords are parodies/interpretations of the original songs. You may use it for private study, scholarship, research or language learning purposes only