» » »

Unsigned, Hardcore Heros - The End Tabs (ver.1)

Artists:  A B C D E F G H I J K L M N O P Q R S T U V W X Y Z # 

Hardcore Heros - The End Tabs (ver.1)

Unsigned Tabs
Rating:
0/5 (0 votes)
Hardcore Heros - The End lessons Tabs too difficult? Try these video lessons and learn fast
                okay this is our first song which might get me joe and Todd signed with Fat Wreck Chords.
Tuning: drop D step up D,A,D,B,B or D,A,D,E,E either or it sounds the same really distrotion: on 6 end on a 8
INTRO x5
EI---------------7-8--------
BI---------------7-8------9-
GI------------------4---5-9-
DI------------------4-7-5-7-
AI----------3222----2-7-5-7-
EI2-4-211244-4--------5-3---

Rthym this what joe gave to me during math class i'm lead so shoot him if it's wrong!x21
EI------99-
BI------77-
GI4-4--5-7-
AI4-4-55---
EI2-2-33---

Lead is just the intro with thrown in at random spots
EI-11-9
BI-99-7

Chorus it's pretty long
E:-------------------------------------------------
B:-------------------------------------------------
G:-------------------------------------7-7-7-7-7-7-
D:-7-7-7-7-7-7-7-7-7-7--4-4-4-4-4-4----7-7-7-7-7-7-
A:-7-7-7-7-7-7-7-7-7-7--4-4-4-4-4-4----5-5-5-5-5-5-
E:-5-5-5-5-5-5-5-5-5-5--2-2-2-2-2-2----------------

Outro
e|----------------------------------------------------|
b|----------------------------------------------------|
g|-----------------------------------6-6-6-6--7-7-7-7-|
d|-11--11--14--14--12--12--11--11----6-6-6-6--7-7-7-7-|
a|--0---0---0---0---0---0---0---0----4-4-4-4--5-5-5-5-|
E|----------------------------------------------------|

End On (rthym) Lead
e|------|     D:0 00---4-0
B|------|     A:0-20---x-0
G|------|     E:0000---2-0
D|--7~--|
A|--7~--|
E|--5~--|
Overall:
Intro
Verse
Chorus
Verse
Chorus
Chorus
Outro
Veres/Intro
Chorus
Outro
Fade (end)
            

comments powered by Disqus
↑ Back to top | Unsigned Tabs for Hardcore Heros - The End. Lyrics for acoustic guitar and electric guitar. Tablatures and chords are parodies/interpretations of the original songs. You may use it for private study, scholarship, research or language learning purposes only