» » »

Unsigned, Gthreec-Collission Tabs (ver.1)

Artists:  A B C D E F G H I J K L M N O P Q R S T U V W X Y Z # 

Gthreec-Collission Tabs (ver.1)

Unsigned Tabs
 Rating:
4/5 (4 votes)
Gthreec-Collission lessons Tabs too difficult? Try these video lessons and learn fast
                Tuning:1/2 step down

Intro: clean tone 4x
e|-----2-------|   |-----0-----0-----0------|
B|-------5---5-|   |-------3-----3-----3----|
G|-4-4-----4---|2x |---------0-----0-----0--|
D|-2-----------|   |------------------------|
A|-2-----------|   |-2/3--------------------|
E|-0-----------|   |------------------------|

distortion kick in... riff 1
e|------------------------------------------|
B|------------------------------------------|
G|-----------9---9------------5---5---------|
D|-2-2-2-2---9---9--2-2-2-2---5---5---------| play 4x
A|-2-2-2-2---7---7\-2-2-2-2---3---3---------|
E|-0-0-0-0-0--------0-0-0-0-0---------------|
   x x x x x        x x x x x

Verse: clean tone
e|----------------------------|
B|----------------------------|
G|-------0-0---0--------------|
D|-2-2-2-2-2------------------|
A|-2-2-2-3---3----------------|
E|-0---0----------------------|

play riff 1 twice before chorus...
Chorus....
e|------------------------------------------|
B|------------------------------------------|
G|-------------------------------5-5-5-5----|
D|-2-2-----5-5-5-5-----7-7-7-----5-5-5-5----|
A|-2-2-----5-5-5-5-----7-7-7-----3-3-3-3----|
E|-0-0-3-2-3-3-3-3-0-0-5-5-5----------------|
       x x
e|------------------------------------------|
B|------------------------------------------|
G|---------------------------5-5-----5h7----|
D|-2-2-----5-5-5-5-----7-7-7-5-5-5h7--------|
A|-2-2-----5-5-5-5-----7-7-7-3-3------------|
E|-0-0-3-2-3-3-3-3-0-0-5-5-5----------------|
       x x 
Interlude: chords..(strum)
e|-----------------------------|
B|-----------------------------|
G|-9-------5---------7---------|
D|-9-------5---------7---------|
A|-7-------3---------5---------|
E|-0---------------------------|



---GthreeC---

| /  slide up
| \  slide down
| h  hammer-on
| p  pull-off
| ~  vibrato
| +  harmonic
| x  Mute note
            
Submit corrections

comments powered by Disqus
↑ Back to top | Unsigned Tabs for Gthreec-Collission. Lyrics for acoustic guitar and electric guitar. Tablatures and chords are parodies/interpretations of the original songs. You may use it for private study, scholarship, research or language learning purposes only