» » »

Gritty Sands-Slopeintercept Tabs (ver.1)

Artists:  A B C D E F G H I J K L M N O P Q R S T U V W X Y Z # 

Gritty Sands-Slopeintercept Tabs (ver.1)

Unsigned
Rating:
0/5 (0 votes)

Hard to play? Try these video lessons and learn fast.
                gritty sands---standard tuning---les paul and a bass.
-----------------------------------------------------------
-----------------------------------------------------------
-----------------------------------play---2x---------------
-----------------------------------------------------------
--------5----6-5------------5------------------------------
-0h5-7---------------0h5-7-------3-2-----------------------


-----------------------------------------------------------
-------------------------------------2x then repeat 1st----
-----------------------------------------------------------
---------5---65---------5----------------------------------
-0 h5-7---------0 h5-7-------3-2---------------------------
-----------------------------------------------------------

-----------------------------------------------------------
-----------------------------------------------------------
-----------------------------------------------------------
----------7-87-----------56--------------------------------
-0-h7--9--------0-h5--7-------repeat 1st-------------------
-----------------------------------------------------------

chorus is d5,c5,e5,d#5 triplets listen to cd to get the hang of it
            
Hard to play? Try these video lessons and learn fast. | Correct




comments powered by Disqus
↑ Back to top | Tablatures and chords are parodies/interpretations of the original songs. You may use it for private study, scholarship, research or language learning purposes only