» » »

Grimreaper Warlords- Kill All Tabs (ver.1)

Artists:  A B C D E F G H I J K L M N O P Q R S T U V W X Y Z # 

Grimreaper Warlords- Kill All Tabs (ver.1)

Unsigned
Rating:
0/5 (0 votes)

Hard to play? Try these video lessons and learn fast.
                PLAY WITH CAUTION! THIS IS A GRIMREAPER WARLORDS SONG!!!
Drop D tuning
I have written PM under the strums that should be palm-muted.

intro:
e:------------------------------------------------
B:------------------------------------------------
G:---------13-12-0-8-7-0-1---------13-12-0-8-7-0-1
D:0-001-110---------------0-001-110---------------play twice (if you dare!)
A:0-001-110---------------0-001-110---------------
D:0-001-110---------------0-001-110---------------
    PM  PM                  PM  PM

e:------------------------------------------------
B:---------------------------------13-12-0-8-7-0-1
G:---------13-12-0-8-7-0-1------------------------
D:0-001-110(0)------------0-001-110(0)------------play twice
A:0-001-110(0)------------0-001-110(0)------------
D:0-001-110(0)------------0-001-110(0)------------


e:--------------------------------------------------
B:--------------------------------------------------
G:1/131313131313121212121212121212128888887777771111
D:--------------------------------------------------
A:--------------------------------------------------
D:--------------------------------------------------

e:------------------------------------------------
B:------------------------------------------------
G:(1)/13131313131312121212121212128888777766666666
D:------------------------------------------------
A:------------------------------------------------
D:------------------------------------------------

verse:
strum extremely hard and fast
e:------------------------------------------------
B:------------------------------------------------
G:131313131313121212121212121212128888887777771111
D:0-0-0-0-0-0-0-0-0-0-0-0-0-0-0-0-0000000000000000
A:------------------------------------------------
D:------------------------------------------------

e:--------------------------------------------
B:--------------------------------------------
G:13131313131312121212121212128888777766666666
D:0-0-0-0-0-0-0-0-0-0-0-0-0-0-0000000000000000
A:--------------------------------------------
D:--------------------------------------------

e:------------------------------------------------
B:------------------------------------------------
G:131313131313121212121212121212128888887777771111
D:121212121212121212121212121212127777778888881111
A:------------------------------------------------
D:------------------------------------------------

e:--------------------------------------------
B:--------------------------------------------
G:13131313131312121212121212128888777766666666
D:12121212121212121212121212127777888800000000
A:--------------------------------------------
D:--------------------------------------------

chorus:
e:--------------------------------------------------------------------
B:--------------------------------------------------------------------
G:--------------------------------------------------------------------let ring
D:0000777788886666000077778888666600007777888866660000222233331-1-0---
A:0000777788886666000077778888666600007777888866660000222233331-1-0---
D:0000777788886666000077778888666600007777888866660000222233331-1-0---
							      .PM.

verse:
strum extremely hard and fast
e:------------------------------------------------
B:------------------------------------------------
G:131313131313121212121212121212128888887777771111
D:0-0-0-0-0-0-0-0-0-0-0-0-0-0-0-0-0000000000000000
A:------------------------------------------------
D:------------------------------------------------

e:--------------------------------------------
B:--------------------------------------------
G:13131313131312121212121212128888777766666666
D:0-0-0-0-0-0-0-0-0-0-0-0-0-0-0000000000000000
A:--------------------------------------------
D:--------------------------------------------

e:------------------------------------------------
B:------------------------------------------------
G:131313131313121212121212121212128888887777771111
D:121212121212121212121212121212127777778888881111
A:------------------------------------------------
D:------------------------------------------------

e:--------------------------------------------
B:--------------------------------------------
G:13131313131312121212121212128888777766666666
D:12121212121212121212121212127777888800000000
A:--------------------------------------------
D:--------------------------------------------

chorus:
e:--------------------------------------------------------------------
B:--------------------------------------------------------------------
G:--------------------------------------------------------------------let ring
D:0000777788886666000077778888666600007777888866660000222233331-1-0---
A:0000777788886666000077778888666600007777888866660000222233331-1-0---
D:0000777788886666000077778888666600007777888866660000222233331-1-0---
							      .PM.

[]- means lightly touch the strings at that part of the guitars bridge
Bridge
e:----------------------
B:----------------------
G:---------------------- Play twice
D:0101010[7]-0101010[5]-
A:0101010[7]-0101010[5]-
D:0101010[7]-0101010[5]-
  ........PM...........

alternate between palm muting and open strums here (the 1 being open)
e:----------------------
B:----------------------
G:---------------------- Play once
D:0101010[7]-0101010[5]-
A:0101010[7]-0101010[5]-
D:0101010[7]-0101010[5]-
 
play all strums normally (try to make it sound as hardcore as you can) 
e:----------------------
B:----------------------
G:---------------------- Play once
D:0101010[7]-0101010[5]-
A:0101010[7]-0101010[5]-
D:0101010[7]-0101010[5]-

D\A means tune the the D string down to an A.
e:-------------------
B:-------------------
G:-------------------play eight times
D:0-let ring--(0)----
A:0-----------(0)----
D:0-----------D\A--A/D

e:----------------
B:----------------
G:----------------play four times
D:0000000011111111
A:0000000011111111
D:0000000011111111
  .......PM.......

(extreme part)
e:------------------------------------------------------------------------
B:------------------------------------------------------------------------
G:------------------------------------------------------------------------
D:13-13-13-13-13-13-13-13-12-12-12-12-12-12-12-12-11-11-11-11-11-11-11-11-
A:13-13-13-13-13-13-13-13-12-12-12-12-12-12-12-12-11-11-11-11-11-11-11-11-
D:13-13-13-13-13-13-13-13-12-12-12-12-12-12-12-12-11-11-11-11-11-11-11-11-
  I MIGHT EVEN POSSIBLY KIIIIILLLLLLLLL ALLLLLLLLLLLLLLLLLLLLLLL
e:-----------------------------------------------
B:-----------------------------------------------
G:-----------------------------------------------
D:10-10-10-10-10-10-10-10-0--let ring-1-let ring-
A:10-10-10-10-10-10-10-10-0-----------1----------
D:10-10-10-10-10-10-10-10-0-----------1----------

This song is immensly extreme! And if you don't believe me ask my (diceassed) dog!!!
            
Hard to play? Try these video lessons and learn fast. | Correct




comments powered by Disqus
↑ Back to top | Tablatures and chords are parodies/interpretations of the original songs. You may use it for private study, scholarship, research or language learning purposes only