» » »

Grey Daze - B Bass tabs (ver.1)

Artists:  A B C D E F G H I J K L M N O P Q R S T U V W X Y Z # 

Grey Daze - B Bass tabs (ver.1)

Unsigned
Rating:
0/5 (0 votes)

Hard to play? Try these video lessons and learn fast.
                This is a slap and pop bassline in the intro, verse and outro.


Intro/Verse

G:-----3-----2------1---------------------------
D:------------------------------------------------
A:------------------------------------------------
E:--33---22----11-----------------------------


Chorus

G:-----------------------------------------------
D:-----------------------------------------------
A:---5------------------------------------------
E:----5-4-3-0-2-1---------------------------


Outro

G:-----3-----2------1-----------------2-1-1--------
D:-----------------------------------------------------
A:-----------------------------------------------------
E:--33---22----11-------------3-------------------


Play these as required in the song.
            
Hard to play? Try these video lessons and learn fast. | Correct




comments powered by Disqus
↑ Back to top | Tablatures and chords are parodies/interpretations of the original songs. You may use it for private study, scholarship, research or language learning purposes only