» » »

Unsigned, G.P.C-Run Away Tabs (ver.1)

Artists:  A B C D E F G H I J K L M N O P Q R S T U V W X Y Z # 

G.P.C-Run Away Tabs (ver.1)

Unsigned Tabs
Rating:
0/5 (0 votes)
G.P.C-Run Away lessons Tabs too difficult? Try these video lessons and learn fast
                Sorry I didn’t put the timing.
Drop D
-|----------------------------------------------------------------------------
-|----------------------------------------------------------------------------
-|----------------------------------------------------------------------------
-|----------------------------------------------------------------------------
-|----------------------------------------------------------------------------
-|0032-0032-0032-0------------------------------------------------------------
   ^ Intro                                                                    

-|----------------------------------------------------------------------------
-|-------------------15^-15^--------------------------------------------------
-|-------------------14^-14^--------------------------------------------------
-|----------------------------------------------------------------------------
-|12/-0032-0032-0032---------------------------------------------------------
-|12/-0032-0032-0032---------------------------------------------------------
  ^ Intro 2                                                                   

-|----------------------------------------------------------------------------
-|----------------------------------------------------------------------------
-|----------------------------------------------------------------------------
-|----------------------------------------------------------------------------
-|0----3----2-----------------------------------------------------------------
-|0----3----2-----------------------------------------------------------------
    ^ Verse                                                                   

-|----------------------------------------------------------------------------
-|----------------------------------------------------------------------------
-|----------------------------------------------------------------------------
-|-7777/5555------------------------------------------------------------------
-|-5555/333300321-------------------------------------------------------------
-|----------00321-------------------------------------------------------------
     ^ Chorus                                                                 

-|----------------------------------------------------------------------------
-|----------------------------------------------------------------------------
-|--------5^------------------------------------------------------------------
-|----------------------------------------------------------------------------
-|0001000---------------------------------------------------------------------
-|0001000---------------------------------------------------------------------
       ^ Interlude

Some what of the timing.
Intro 1 x2
Intro 2 x5
Verse 1 x2
Chorus  x4
Verse 2 x3
Chorus  x3 slowing down on the 3rd time
Intuerlude x6
Chorus     x5
Intro 2 slow

I'm not sure about the timing cause I'm not listing to the song right and this moment  know it's my own song but what the hell am I going to do about it I don't like timing.
            

comments powered by Disqus
↑ Back to top | Unsigned Tabs for G.P.C-Run Away. Lyrics for acoustic guitar and electric guitar. Tablatures and chords are parodies/interpretations of the original songs. You may use it for private study, scholarship, research or language learning purposes only