>
 >
Goldfish Dont Bounce - No-Ones Perfect

Goldfish Dont Bounce - No-Ones Perfect Bass Tabs

Unsigned - Goldfish Dont Bounce  -  No-Ones Perfect chords, tabs, tablatures, lyrics

Guitar lessons | Add/correct | Request | Top 50 tabs Artists:  A B C D E F G H I J K L M N O P Q R S T U V W X Y Z 0-9

Goldfish Dont Bounce - No-Ones Perfect Bass Tabs – Unsigned

CD, Sheet music, Poster

Do you like Goldfish Dont Bounce - No-Ones Perfect? Share with your friends now
Bass Tabs
Intro:

G:---------------------------------
D:-------------------------3333333-
A:-5555555-3333333-----------------
E:-----------------3333333---------

Verse:

G:-----------------------------------
D:-----------------------------------
A:-3333333-----------------5--3--5--7
E:---------3333333-5555555-----------

Chorus:

G:--------------------------------
D:-------------------------3333333
A:-3333333------------------------
E:---------3333333-5555555--------

G:-----------------------------------
D:-----------------------------------
A:-3333333-----------------5--3--5--7
E:---------3333333-5555555-----------

Bass solo:

G:-----------------------------------------------
D:-----------------------------------------------
A:-3---4-5-4-5-6-2---------------------5--3--5--7
E:----------------3--3-4-3-4-5---4-5-4-----------

G:-----------------------------------------------
D:-----------------------------------------------
A:-33--4-5-6-2---------------5--3--5--7----------
E:------------3--4-3-4-3-4-5---------------------

Order:

Intro x2
Verse x2
Chorus x1
Intro x2
Verse x2
Chorus x1
Bass Solo x1
Chorus x1





Comments


Popular Unsigned tabs & chords
Finalnotice - Song Bass Tabs
Five Elementz - It Ends Here Bass Tabs
Insecure Gnomes - Clearer Bass Tabs
Look Behind You-Pamala Never Liked Tommy Bass Tabs
Suicide Method - Bloodwork Bass Tabs
214 - My New Pair Of Shoes Tabs
Apu - Anymore Tabs
Awesome Tabs
Backyard Wreck-Untitled Tabs
Emodium -Let It All Go Tabs


Song lyrics



↑ Back to top | Tablatures and chords are parodies/interpretations of the original songs. You may use it for private study, scholarship, research or language learning purposes only
© 2014 AZChords.com Contact us | Privacy policy | DMCA | Add/correct tabs | Request tabs | Top 50 tabs