» » »

Unsigned, Golden Sex & Silver People- I Like Your Bass tabs (ver.1)

Artists:  A B C D E F G H I J K L M N O P Q R S T U V W X Y Z # 

Golden Sex & Silver People- I Like Your Bass tabs (ver.1)

Unsigned Tabs
Rating:
0/5 (0 votes)
Hard to play? Try these video lessons and learn fast.
                verse
G----------------------|--------------------5--|
D----------------------|-----------------------|
A----------------------|-----------------------|
E--2-2--2-2--22-33-11--|--2-2--2-2--22-33-11---|

chorus
G-------------------|
D-------------------|
A------55--77---3---|
E--55---------------|

guitar solo
G-------------------------------------|
D-------------------------------------|
A-------------------------------------|
E--2-2-2-2-2-2-2-2--3-3-3-3--1-1-1-1--|
            

comments powered by Disqus
↑ Back to top | Unsigned Bass for Golden Sex & Silver People- I Like Your. Lyrics for acoustic guitar and electric guitar. Tablatures and chords are parodies/interpretations of the original songs. You may use it for private study, scholarship, research or language learning purposes only