» » »

Unsigned, Gba - Over And Over Tabs (ver.1)

Artists:  A B C D E F G H I J K L M N O P Q R S T U V W X Y Z # 

Gba - Over And Over Tabs (ver.1)

Unsigned Tabs
 Rating:
4/5 (4 votes)
Gba - Over And Over lessons Tabs too difficult? Try these video lessons and learn fast
                E-1-----4-----2-----4-
B-1-----4-----2-----4-
G-3-----6-----3-----5-     x2
D-3-----6-----4-----6-
A-1-----4-----4-----6-
E-1-----4-----2-----4-

Verse

E----------------------------------------------------
B----------------------------------------------------
G-33333333-66666666----------------------------------  x2
D-33333333-66666666-44444444-66666666----------------
A-11111111-44444444-44444444-66666666----------------
E-------------------22222222-44444444----------------

E--------------------------------------
B--------------------------------------
G--------------------------------------     x4
D--------------------------------------
A-1-1-1-1-4-4-4-4----------------------
E-----------------2-2-2-2-4-4-4-4------


P.M.................................^


E-------------------------------------
B-------------------------------------
G-----3------6------------------------      x4
D-----3------6-------4------6---------
A-1-1-1--4-4-4-------4------6---------
E----------------2-2-2--4-4-4---------

P.M. (Single string notes)

Bridge

E-----------------------------------------
B-----------------------------------------
G-33333333-66666666----------66666666-----  x4
D-33333333-66666666-44444444-66666666-----
A-11111111-44444444-44444444-44444444-----
E-------------------22222222--------------

Chorus

E------------------------------------------
B-------------------77777777---------------
G-33333333-66666666-66666666---------------  x4
D-33333333-66666666-44444444-66666666------
A-11111111-44444444----------66666666------
E----------------------------44444444------

Solo

E-----------------------------------------------------
B-----------------------------------------------------
G---11-------------14-12-11-----14-12-11--------------
D-8----9-8-----12-----------12h----------12h-14h------
A----------9h-----------------------------------------
E-----------------------------------------------------

E-----------------------------------------------------------------------------------
B-----------------------------------------------------------------------------------
G---11------------14-12-11-----14-12-11------12-----12------12-14-12h---------------
D-8----9-8----12-----------12h----------12/14---12/14--12/14------------------------
A----------9h-----------------------------------------------------------------------
E-----------------------------------------------------------------------------------
            
Submit corrections

comments powered by Disqus
↑ Back to top | Unsigned Tabs for Gba - Over And Over. Lyrics for acoustic guitar and electric guitar. Tablatures and chords are parodies/interpretations of the original songs. You may use it for private study, scholarship, research or language learning purposes only