» » »

Unsigned, Fuddle - Melvin Tabs (ver.1)

Artists:  A B C D E F G H I J K L M N O P Q R S T U V W X Y Z # 

Fuddle - Melvin Tabs (ver.1)

Unsigned Tabs
Rating:
0/5 (0 votes)
Fuddle - Melvin lessons Tabs too difficult? Try these video lessons and learn fast
                
Intro-clean
E-x---5---x---5---x---5---x---7-----------------------------------
B-x---7---x---7---x---5---x---7-----------------------------------
G-x---7---x---7---x---7---x---9-----------------------------------
D-x---7---x---7---x---7---x---9-----------------------------------
A-x---5---x---5---x---5---x---7-----------------------------------
D-x-------x-------x---5---x---7-----------------------------------

E-x---5---x---5---x---5---x---7-----------------------------------
B-x---7---x---7---x---5---x---7-----------------------------------
G-x---7---x---7---x---7---x---9-----------------------------------
D-x---7---x---7---x---7---x---9-----------------------------------
A-x---5---x---5---x---5---x---7-----------------------------------
D-x-------x-------x---5---x---7-----------------------------------

Verse-clean
E-x-5-x-5-x-5-x-5-x-5-x-5-x-5-x-5-x-5-x-5-x-5-x-5-x-7-x-7-x-7-x-7-
B-x-7-x-7-x-7-x-7-x-7-x-7-x-7-x-7-x-5-x-5-x-5-x-5-x-7-x-7-x-7-x-7-
G-x-7-x-7-x-7-x-7-x-7-x-7-x-7-x-7-x-7-x-7-x-7-x-7-x-9-x-9-x-9-x-9-
D-x-7-x-7-x-7-x-7-x-7-x-7-x-7-x-7-x-7-x-7-x-7-x-7-x-9-x-9-x-9-x-9-
A-x-5-x-5-x-5-x-5-x-5-x-5-x-5-x-5-x-5-x-5-x-5-x-5-x-7-x-7-x-7-x-7-
D-x---x---x---x---x---x---x---x---x-5-x-5-x-5-x-5-x-7-x-7-x-7-x-7-

E-x-5-x-5-x-5-x-5-x-5-x-5-x-5-x-5-x-5-x-5-x-5-x-5-x-7-x-7-x-7-x-7-
B-x-7-x-7-x-7-x-7-x-7-x-7-x-7-x-7-x-5-x-5-x-5-x-5-x-7-x-7-x-7-x-7-
G-x-7-x-7-x-7-x-7-x-7-x-7-x-7-x-7-x-7-x-7-x-7-x-7-x-9-x-9-x-9-x-9-
D-x-7-x-7-x-7-x-7-x-7-x-7-x-7-x-7-x-7-x-7-x-7-x-7-x-9-x-9-x-9-x-9-
A-x-5-x-5-x-5-x-5-x-5-x-5-x-5-x-5-x-5-x-5-x-5-x-5-x-7-x-7-x-7-x-7-
D-x---x---x---x---x---x---x---x---x-5-x-5-x-5-x-5-x-7-x-7-x-7-x-7-

E-x-5-x-5-x-5-x-5-x-5-x-5-x-5-x-5-x-5-x-5-x-5-x-5-x-7-x-7-x-7-x-7-
B-x-7-x-7-x-7-x-7-x-7-x-7-x-7-x-7-x-5-x-5-x-5-x-5-x-7-x-7-x-7-x-7-
G-x-7-x-7-x-7-x-7-x-7-x-7-x-7-x-7-x-7-x-7-x-7-x-7-x-9-x-9-x-9-x-9-
D-x-7-x-7-x-7-x-7-x-7-x-7-x-7-x-7-x-7-x-7-x-7-x-7-x-9-x-9-x-9-x-9-
A-x-5-x-5-x-5-x-5-x-5-x-5-x-5-x-5-x-5-x-5-x-5-x-5-x-7-x-7-x-7-x-7-
D-x---x---x---x---x---x---x---x---x-5-x-5-x-5-x-5-x-7-x-7-x-7-x-7-

E-x-5-x-5-x-5-x-5-x-5-x-5-x-5-x-5-x-5-x-5-x-5-x-5-x-7-x-7-x-7-x-7-
B-x-7-x-7-x-7-x-7-x-7-x-7-x-7-x-7-x-5-x-5-x-5-x-5-x-7-x-7-x-7-x-7-
G-x-7-x-7-x-7-x-7-x-7-x-7-x-7-x-7-x-7-x-7-x-7-x-7-x-9-x-9-x-9-x-9-
D-x-7-x-7-x-7-x-7-x-7-x-7-x-7-x-7-x-7-x-7-x-7-x-7-x-9-x-9-x-9-x-9-
A-x-5-x-5-x-5-x-5-x-5-x-5-x-5-x-5-x-5-x-5-x-5-x-5-x-7-x-7-x-7-x-7-
D-x---x---x---x---x---x---x---x---x-5-x-5-x-5-x-5-x-7-x-7-x-7-x-7-

E-x-5-x-5-x-5-x-5-x-5-x-5-x-5-x-5-x-5-x-5-x-5-x-5-x-7-x-7-x-7-x-7-
B-x-7-x-7-x-7-x-7-x-7-x-7-x-7-x-7-x-5-x-5-x-5-x-5-x-7-x-7-x-7-x-7-
G-x-7-x-7-x-7-x-7-x-7-x-7-x-7-x-7-x-7-x-7-x-7-x-7-x-9-x-9-x-9-x-9-
D-x-7-x-7-x-7-x-7-x-7-x-7-x-7-x-7-x-7-x-7-x-7-x-7-x-9-x-9-x-9-x-9-
A-x-5-x-5-x-5-x-5-x-5-x-5-x-5-x-5-x-5-x-5-x-5-x-5-x-7-x-7-x-7-x-7-
D-x---x---x---x---x---x---x---x---x-5-x-5-x-5-x-5-x-7-x-7-x-7-x-7-

E-x-5-x-5-x-5-x-5-x-5-x-5-x-5-x-5-x-5-x-5-x-5-x-5-x-7-x-7-x-7-x-7-
B-x-7-x-7-x-7-x-7-x-7-x-7-x-7-x-7-x-5-x-5-x-5-x-5-x-7-x-7-x-7-x-7-
G-x-7-x-7-x-7-x-7-x-7-x-7-x-7-x-7-x-7-x-7-x-7-x-7-x-9-x-9-x-9-x-9-
D-x-7-x-7-x-7-x-7-x-7-x-7-x-7-x-7-x-7-x-7-x-7-x-7-x-9-x-9-x-9-x-9-
A-x-5-x-5-x-5-x-5-x-5-x-5-x-5-x-5-x-5-x-5-x-5-x-5-x-7-x-7-x-7-x-7-
D-x---x---x---x---x---x---x---x---x-5-x-5-x-5-x-5-x-7-x-7-x-7-x-7-

Bridge to Chorus-H/dist
E-----------------------------------------------------------------
B-----------------------------------------------------------------
G-----------------------------------------------------------------
D-4-4--4--4--4--4--4-4--4--5-5--5--5/9--9--7-7-7-7----------------
A-2-2--2--2--2--2--2-2--2--3-3--3--3/7--7--5-5-5-5----------------
D-----------------------------------------------------------------

E-----------------------------------------------------------------
B-----------------------------------------------------------------
G-----------------------------------------------------------------
D-----------------------------------------------------------------
A-5-5-5-5-5-5-5-5-5-5-5-5-5-5-5-----------------------------------
D-5-5-5-5-5-5-5-5-5-5-5-5-5-5-5-----------------------------------

E-----------------------------------------------------------------
B-----------------------------------------------------------------
G-----------------------------------------------------------------
D-4-4--4--4--4--4--4-4--4--5-5--5--5/9--9--7-7-7-7----------------
A-2-2--2--2--2--2--2-2--2--3-3--3--3/7--7--5-5-5-5----------------
D-----------------------------------------------------------------

E-----------------------------------------------------------------
B-----------------------------------------------------------------
G-----------------------------------------------------------------
D-----------------------------------------------------------------
A-5-5-5-5-5-5-5-5-5-5-5-5-5-5-5-----------------------------------
D-5-5-5-5-5-5-5-5-5-5-5-5-5-5-5-----------------------------------

Chorus-H/dist
E-----------------------------------------------------------------
B-----------------------------------------------------------------
G-----------------------------------------------------------------
D-7--7--5-5-5-5---------------------------------------------------
A-5--5--3-3-3-3-5-5-5-5-5-5-5-5-----------------------------------
D---------------5-5-5-5-5-5-5-5-----------------------------------

E-----------------------------------------------------------------
B-----------------------------------------------------------------
G-----------------------------------------------------------------
D-7--7--5-5-5-5---------------------------------------------------
A-5--5--3-3-3-3-5-5-5-5-5-5-5-5-----------------------------------
D---------------5-5-5-5-5-5-5-5-----------------------------------

E-----------------------------------------------------------------
B-----------------------------------------------------------------
G-----------------------------------------------------------------
D-7--7--5-5-5-5---------------------------------------------------
A-5--5--3-3-3-3-5-5-5-5-5-5-5-5-----------------------------------
D---------------5-5-5-5-5-5-5-5-----------------------------------

E-----------------------------------------------------------------
B-----------------------------------------------------------------
G-----------------------------------------------------------------
D-7--7--5-5-5-5---------------------------------------------------
A-5--5--3-3-3-3-5-5-5-5-5-5-5-5-----------------------------------
D---------------5-5-5-5-5-5-5-5-----------------------------------

Verse-clean
E-x-5-x-5-x-5-x-5-x-5-x-5-x-5-x-5-x-5-x-5-x-5-x-5-x-7-x-7-x-7-x-7-
B-x-7-x-7-x-7-x-7-x-7-x-7-x-7-x-7-x-5-x-5-x-5-x-5-x-7-x-7-x-7-x-7-
G-x-7-x-7-x-7-x-7-x-7-x-7-x-7-x-7-x-7-x-7-x-7-x-7-x-9-x-9-x-9-x-9-
D-x-7-x-7-x-7-x-7-x-7-x-7-x-7-x-7-x-7-x-7-x-7-x-7-x-9-x-9-x-9-x-9-
A-x-5-x-5-x-5-x-5-x-5-x-5-x-5-x-5-x-5-x-5-x-5-x-5-x-7-x-7-x-7-x-7-
D-x---x---x---x---x---x---x---x---x-5-x-5-x-5-x-5-x-7-x-7-x-7-x-7-

E-x-5-x-5-x-5-x-5-x-5-x-5-x-5-x-5-x-5-x-5-x-5-x-5-x-7-x-7-x-7-x-7-
B-x-7-x-7-x-7-x-7-x-7-x-7-x-7-x-7-x-5-x-5-x-5-x-5-x-7-x-7-x-7-x-7-
G-x-7-x-7-x-7-x-7-x-7-x-7-x-7-x-7-x-7-x-7-x-7-x-7-x-9-x-9-x-9-x-9-
D-x-7-x-7-x-7-x-7-x-7-x-7-x-7-x-7-x-7-x-7-x-7-x-7-x-9-x-9-x-9-x-9-
A-x-5-x-5-x-5-x-5-x-5-x-5-x-5-x-5-x-5-x-5-x-5-x-5-x-7-x-7-x-7-x-7-
D-x---x---x---x---x---x---x---x---x-5-x-5-x-5-x-5-x-7-x-7-x-7-x-7-

E-x-5-x-5-x-5-x-5-x-5-x-5-x-5-x-5-x-5-x-5-x-5-x-5-x-7-x-7-x-7-x-7-
B-x-7-x-7-x-7-x-7-x-7-x-7-x-7-x-7-x-5-x-5-x-5-x-5-x-7-x-7-x-7-x-7-
G-x-7-x-7-x-7-x-7-x-7-x-7-x-7-x-7-x-7-x-7-x-7-x-7-x-9-x-9-x-9-x-9-
D-x-7-x-7-x-7-x-7-x-7-x-7-x-7-x-7-x-7-x-7-x-7-x-7-x-9-x-9-x-9-x-9-
A-x-5-x-5-x-5-x-5-x-5-x-5-x-5-x-5-x-5-x-5-x-5-x-5-x-7-x-7-x-7-x-7-
D-x---x---x---x---x---x---x---x---x-5-x-5-x-5-x-5-x-7-x-7-x-7-x-7-

E-x-5-x-5-x-5-x-5-x-5-x-5-x-5-x-5-x-5-x-5-x-5-x-5-x-7-x-7-x-7-x-7-
B-x-7-x-7-x-7-x-7-x-7-x-7-x-7-x-7-x-5-x-5-x-5-x-5-x-7-x-7-x-7-x-7-
G-x-7-x-7-x-7-x-7-x-7-x-7-x-7-x-7-x-7-x-7-x-7-x-7-x-9-x-9-x-9-x-9-
D-x-7-x-7-x-7-x-7-x-7-x-7-x-7-x-7-x-7-x-7-x-7-x-7-x-9-x-9-x-9-x-9-
A-x-5-x-5-x-5-x-5-x-5-x-5-x-5-x-5-x-5-x-5-x-5-x-5-x-7-x-7-x-7-x-7-
D-x---x---x---x---x---x---x---x---x-5-x-5-x-5-x-5-x-7-x-7-x-7-x-7-

E-x-5-x-5-x-5-x-5-x-5-x-5-x-5-x-5-x-5-x-5-x-5-x-5-x-7-x-7-x-7-x-7-
B-x-7-x-7-x-7-x-7-x-7-x-7-x-7-x-7-x-5-x-5-x-5-x-5-x-7-x-7-x-7-x-7-
G-x-7-x-7-x-7-x-7-x-7-x-7-x-7-x-7-x-7-x-7-x-7-x-7-x-9-x-9-x-9-x-9-
D-x-7-x-7-x-7-x-7-x-7-x-7-x-7-x-7-x-7-x-7-x-7-x-7-x-9-x-9-x-9-x-9-
A-x-5-x-5-x-5-x-5-x-5-x-5-x-5-x-5-x-5-x-5-x-5-x-5-x-7-x-7-x-7-x-7-
D-x---x---x---x---x---x---x---x---x-5-x-5-x-5-x-5-x-7-x-7-x-7-x-7-

E-x-5-x-5-x-5-x-5-x-5-x-5-x-5-x-5-x-5-x-5-x-5-x-5-x-7-x-7-x-7-x-7-
B-x-7-x-7-x-7-x-7-x-7-x-7-x-7-x-7-x-5-x-5-x-5-x-5-x-7-x-7-x-7-x-7-
G-x-7-x-7-x-7-x-7-x-7-x-7-x-7-x-7-x-7-x-7-x-7-x-7-x-9-x-9-x-9-x-9-
D-x-7-x-7-x-7-x-7-x-7-x-7-x-7-x-7-x-7-x-7-x-7-x-7-x-9-x-9-x-9-x-9-
A-x-5-x-5-x-5-x-5-x-5-x-5-x-5-x-5-x-5-x-5-x-5-x-5-x-7-x-7-x-7-x-7-
D-x---x---x---x---x---x---x---x---x-5-x-5-x-5-x-5-x-7-x-7-x-7-x-7-

Bridge to Chorus-H/dist
E-----------------------------------------------------------------
B-----------------------------------------------------------------
G-----------------------------------------------------------------
D-4-4--4--4--4--4--4-4--4--5-5--5--5/9--9--7-7-7-7----------------
A-2-2--2--2--2--2--2-2--2--3-3--3--3/7--7--5-5-5-5----------------
D-----------------------------------------------------------------

E-----------------------------------------------------------------
B-----------------------------------------------------------------
G-----------------------------------------------------------------
D-----------------------------------------------------------------
A-5-5-5-5-5-5-5-5-5-5-5-5-5-5-5-----------------------------------
D-5-5-5-5-5-5-5-5-5-5-5-5-5-5-5-----------------------------------

E-----------------------------------------------------------------
B-----------------------------------------------------------------
G-----------------------------------------------------------------
D-4-4--4--4--4--4--4-4--4--5-5--5--5/9--9--7-7-7-7----------------
A-2-2--2--2--2--2--2-2--2--3-3--3--3/7--7--5-5-5-5----------------
D-----------------------------------------------------------------

E-----------------------------------------------------------------
B-----------------------------------------------------------------
G-----------------------------------------------------------------
D-----------------------------------------------------------------
A-5-5-5-5-5-5-5-5-5-5-5-5-5-5-5-----------------------------------
D-5-5-5-5-5-5-5-5-5-5-5-5-5-5-5-----------------------------------

Chorus-H/dist
E-----------------------------------------------------------------
B-----------------------------------------------------------------
G-----------------------------------------------------------------
D-7--7--5-5-5-5---------------------------------------------------
A-5--5--3-3-3-3-5-5-5-5-5-5-5-5-----------------------------------
D---------------5-5-5-5-5-5-5-5-----------------------------------

E-----------------------------------------------------------------
B-----------------------------------------------------------------
G-----------------------------------------------------------------
D-7--7--5-5-5-5---------------------------------------------------
A-5--5--3-3-3-3-5-5-5-5-5-5-5-5-----------------------------------
D---------------5-5-5-5-5-5-5-5-----------------------------------

E-----------------------------------------------------------------
B-----------------------------------------------------------------
G-----------------------------------------------------------------
D-7--7--5-5-5-5---------------------------------------------------
A-5--5--3-3-3-3-5-5-5-5-5-5-5-5-----------------------------------
D---------------5-5-5-5-5-5-5-5-----------------------------------

E-----------------------------------------------------------------
B-----------------------------------------------------------------
G-----------------------------------------------------------------
D-7--7--5-5-5-5---------------------------------------------------
A-5--5--3-3-3-3-5-5-5-5-5-5-5-5-----------------------------------
D---------------5-5-5-5-5-5-5-5-----------------------------------

E-----------------------------------------------------------------
B-----------------------------------------------------------------
G-----------------------------------------------------------------
D-7--7--5-5-5-5---------------------------------------------------
A-5--5--3-3-3-3-5-5-5-5-5-5-5-5-----------------------------------
D---------------5-5-5-5-5-5-5-5-----------------------------------

E-----------------------------------------------------------------
B-----------------------------------------------------------------
G-----------------------------------------------------------------
D-7--7--5-5-5-5---------------------------------------------------
A-5--5--3-3-3-3-5-5-5-5-5-5-5-5-----------------------------------
D---------------5-5-5-5-5-5-5-5-----------------------------------

E-----------------------------------------------------------------
B-----------------------------------------------------------------
G-----------------------------------------------------------------
D-7--7--5-5-5-5---------------------------------------------------
A-5--5--3-3-3-3-5-5-5-5-5-5-5-5-----------------------------------
D---------------5-5-5-5-5-5-5-5-----------------------------------

E-----------------------------------------------------------------
B-----------------------------------------------------------------
G-----------------------------------------------------------------
D-7--7--5-5-5-5---------------------------------------------------
A-5--5--3-3-3-3-5-5-5-5-5-5-5-5-----------------------------------
D---------------5-5-5-5-5-5-5-5-----------------------------------

Solo?

Verse-H/dist
E-----------------------------------------------------------------
B-----------------------------------------------------------------
G-----------------------------------------------------------------
D-7--7--7--7--7--7--7--7------------------------------------------
A-5--5--5--5--5--5--5--5--5--5--5--5--7--7--7--7------------------
D-------------------------5--5--5--5--7--7--7--7------------------

E-----------------------------------------------------------------
B-----------------------------------------------------------------
G-----------------------------------------------------------------
D-7--7--7--7--7--7--7--7------------------------------------------
A-5--5--5--5--5--5--5--5--5--5--5--5--7--7--7--7------------------
D-------------------------5--5--5--5--7--7--7--7------------------

E-----------------------------------------------------------------
B-----------------------------------------------------------------
G-----------------------------------------------------------------
D-7--7--7--7--7--7--7--7------------------------------------------
A-5--5--5--5--5--5--5--5--5--5--5--5--7--7--7--7------------------
D-------------------------5--5--5--5--7--7--7--7------------------

E-----------------------------------------------------------------
B-----------------------------------------------------------------
G-----------------------------------------------------------------
D-7--7--7--7--7--7--7--7------------------------------------------
A-5--5--5--5--5--5--5--5--5--5--5--5--7--7--7--7------------------
D-------------------------5--5--5--5--7--7--7--7------------------

Bridge to Chorus-H/dist
E-----------------------------------------------------------------
B-----------------------------------------------------------------
G-----------------------------------------------------------------
D-4-4--4--4--4--4--4-4--4--5-5--5--5/9--9--7-7-7-7----------------
A-2-2--2--2--2--2--2-2--2--3-3--3--3/7--7--5-5-5-5----------------
D-----------------------------------------------------------------

E-----------------------------------------------------------------
B-----------------------------------------------------------------
G-----------------------------------------------------------------
D-----------------------------------------------------------------
A-5-5-5-5-5-5-5-5-5-5-5-5-5-5-5-----------------------------------
D-5-5-5-5-5-5-5-5-5-5-5-5-5-5-5-----------------------------------

E-----------------------------------------------------------------
B-----------------------------------------------------------------
G-----------------------------------------------------------------
D-4-4--4--4--4--4--4-4--4--5-5--5--5/9--9--7-7-7-7----------------
A-2-2--2--2--2--2--2-2--2--3-3--3--3/7--7--5-5-5-5----------------
D-----------------------------------------------------------------

E-----------------------------------------------------------------
B-----------------------------------------------------------------
G-----------------------------------------------------------------
D-----------------------------------------------------------------
A-5-5-5-5-5-5-5-5-5-5-5-5-5-5-5-----------------------------------
D-5-5-5-5-5-5-5-5-5-5-5-5-5-5-5-----------------------------------

Chorus-H/dist
E-----------------------------------------------------------------
B-----------------------------------------------------------------
G-----------------------------------------------------------------
D-7--7--5-5-5-5---------------------------------------------------
A-5--5--3-3-3-3-5-5-5-5-5-5-5-5-----------------------------------
D---------------5-5-5-5-5-5-5-5-----------------------------------

E-----------------------------------------------------------------
B-----------------------------------------------------------------
G-----------------------------------------------------------------
D-7--7--5-5-5-5---------------------------------------------------
A-5--5--3-3-3-3-5-5-5-5-5-5-5-5-----------------------------------
D---------------5-5-5-5-5-5-5-5-----------------------------------

E-----------------------------------------------------------------
B-----------------------------------------------------------------
G-----------------------------------------------------------------
D-7--7--5-5-5-5---------------------------------------------------
A-5--5--3-3-3-3-5-5-5-5-5-5-5-5-----------------------------------
D---------------5-5-5-5-5-5-5-5-----------------------------------

E-----------------------------------------------------------------
B-----------------------------------------------------------------
G-----------------------------------------------------------------
D-7--7--5-5-5-5---------------------------------------------------
A-5--5--3-3-3-3-5-5-5-5-5-5-5-5-----------------------------------
D---------------5-5-5-5-5-5-5-5-----------------------------------

E-----------------------------------------------------------------
B-----------------------------------------------------------------
G-----------------------------------------------------------------
D-7--7--5-5-5-5---------------------------------------------------
A-5--5--3-3-3-3-5-5-5-5-5-5-5-5-----------------------------------
D---------------5-5-5-5-5-5-5-5-----------------------------------

E-----------------------------------------------------------------
B-----------------------------------------------------------------
G-----------------------------------------------------------------
D-7--7--5-5-5-5---------------------------------------------------
A-5--5--3-3-3-3-5-5-5-5-5-5-5-5-----------------------------------
D---------------5-5-5-5-5-5-5-5-----------------------------------

E-----------------------------------------------------------------
B-----------------------------------------------------------------
G-----------------------------------------------------------------
D-7--7--5-5-5-5---------------------------------------------------
A-5--5--3-3-3-3-5-5-5-5-5-5-5-5-----------------------------------
D---------------5-5-5-5-5-5-5-5-----------------------------------

E-----------------------------------------------------------------
B-----------------------------------------------------------------
G-----------------------------------------------------------------
D-7--7--5-5-5-5---------------------------------------------------
A-5--5--3-3-3-3-5-5-5-5-5-5-5-5-----------------------------------
D---------------5-5-5-5-5-5-5-5-----------------------------------
            

comments powered by Disqus
↑ Back to top | Unsigned Tabs for Fuddle - Melvin. Lyrics for acoustic guitar and electric guitar. Tablatures and chords are parodies/interpretations of the original songs. You may use it for private study, scholarship, research or language learning purposes only