» » »

Fraser Rix- Duno The Name Yet Tabs (ver.1)

Artists:  A B C D E F G H I J K L M N O P Q R S T U V W X Y Z # 

Fraser Rix- Duno The Name Yet Tabs (ver.1)

Unsigned
Rating:
0/5 (0 votes)

Hard to play? Try these video lessons and learn fast.
                writen by fraser rix 


E----------------------------2---
B--------------------1-----3-----     Intro
G--------0---------0-----2-------
D------2---2-----2-----0---------
A----2-------2-3-----------------
E--0-----------------------------

E----------------------------2h3-
B--------------------1-----3-----     
G--------0---------0-----2-------
D------2---2-----2-----0---------
A----2-------2-3-----------------
E--0-----------------------------

Verse
E------------0-----------0-----------2h3----------------------
B----------0-----------1---1-------3-----3-----------0---------
G--------0-----------0-------0---2---------2-------0---0--------
D------2-----------2-----------0-----------------2-------2------
A----2-----------3-----------------------------2-----------2----
E--0-----------0-----------------------------0-----------------

Chorus guitar 1
E---------3slide5-------------------2h3h2-------------0-3-0--
B-----------------------1-3-1-----3-------3------------------
G-------0-------------0---------2-----------------0----------
D-----2-------------2---------0-----------------2------------
A---2-------------3---------------------------2--------------
E-0-----------------------------------------0----------------

Chorus guitar 2
E-0-0-0-0-0-0-0-0-0-0-0-0
B-0-0-0-0-0-0-0-0-0-0-0-0
G-0-0-0-0-0-0-0-0-0-0-0-0
D-2-2-2-2-2-2-2-2-2-2-2-2
A-2-2-2-2-2-2-2-2-2-2-2-2
E-0-0-0-0-0-0-0-0-0-0-0-0

E-0-0-0-0-0-0-0-0-0-0-0-0
B-1-1-1-1-1-1-1-1-1-1-1-1
G-0-0-0-0-0-0-0-0-0-0-0-0
D-2-2-2-2-2-2-2-2-2-2-2-2
A-3-3-3-3-3-3-3-3-3-3-3-3
E-0-0-0-0-0-0-0-0-0-0-0-0

E-2-2-2-2-2-3-2-2-2-2-3-2
B-3-3-3-3-3-3-3-3-3-3-3-3
G-2-2-2-2-2-2-2-2-2-2-2-2
D-0-0-0-0-0-0-0-0-0-0-0-0
A-0-0-0-0-0-0-0-0-0-0-0-0
E-0-0-0-0-0-0-0-0-0-0-0-0

E-0-0-0-0-0-0-0-0-0-0-0-0
B-0-0-0-0-0-0-0-0-0-0-0-0
G-0-0-0-0-0-0-0-0-0-0-0-0
D-2-2-2-2-2-2-2-2-2-2-2-2
A-2-2-2-2-2-2-2-2-2-2-2-2
E-0-0-0-0-0-0-0-0-0-0-0-0
            
Hard to play? Try these video lessons and learn fast. | Correct




comments powered by Disqus
↑ Back to top | Tablatures and chords are parodies/interpretations of the original songs. You may use it for private study, scholarship, research or language learning purposes only