» » »

Unsigned, Fragile Minds - Broken Angel Tabs (ver.1)

Artists:  A B C D E F G H I J K L M N O P Q R S T U V W X Y Z # 

Fragile Minds - Broken Angel Tabs (ver.1)

Unsigned Tabs
 Rating:
4/5 (4 votes)
Fragile Minds - Broken Angel lessons Tabs too difficult? Try these video lessons and learn fast
1
                Intro:

E-------------------------------------------------------------
B-------------------------------------------------------------
G-------------------------------------------------------------
D-------------------------------------------------------------
A-------------------------------------------------------------
E-----4---6---7---6------4---6---7---6------4---6---7---6

Chorus:

E------------------------------------
B------------------------------------
G------------------------------------ x3
D------------------------------------
A---6-6-88888----9-9-88888----
E---4-4-66666----7-7-66666----

G------------------------------------ 
D--------------66666---------------
A---44444---44444----6----------
E---22222---------------4----------

Verse:

E----------------------------------------------
B----------------------------------------------
G----------------------------------------------
D----------------------------------------------
A----------------------------------------------
E---44---22---11---00---44---66---77---99

A-----------------------------------------------
E---44---22---11---00---44---66---7-9 PD
            
Submit corrections

comments powered by Disqus
↑ Back to top | Unsigned Tabs for Fragile Minds - Broken Angel. Lyrics for acoustic guitar and electric guitar. 1 Tablatures and chords are parodies/interpretations of the original songs. You may use it for private study, scholarship, research or language learning purposes only