>
 >
Four Fingers And A Toe - Mexico

Four Fingers And A Toe - Mexico Guitar Tabs

Unsigned - Four Fingers And A Toe - Mexico chords, tabs, tablatures, lyrics

Guitar lessons | Add/correct | Request | Top 50 tabs Artists:  A B C D E F G H I J K L M N O P Q R S T U V W X Y Z 0-9

Four Fingers And A Toe - Mexico Guitar Tabs – Unsigned

CD, Sheet music, Poster

Do you like Four Fingers And A Toe - Mexico? Share with your friends now
Tabs
Main Riff/Intro (Guitar 1)
                                             Every 4th Time Play
D--0-0--0-2-2--0-2-3-3-3--3ph5-2-------- / --0-0--0-2-2--0-2-3-3---
A--------------------------------------- / ------------------------
D--------------------------------------- / ------------------------
G--------------------------------------- / ------------------------
B--------------------------------------- / ------------------------
E--------------------------------------- / ------------------------

Main Riff/Intro (Heavy)(Guitar 1)
                                             Every 4th Time Play
D--0-0--0-2-2--0-2-3-3-3--3ph5-2-------- / --0-0--0-2-2--0-2-3-3---
A--0-0--0-2-2--0-2-3-3-3--3ph5-2-------- / --0-0--0-2-2--0-2-3-3---
D--------------------------------------- / ------------------------
G--------------------------------------- / ------------------------
B--------------------------------------- / ------------------------
E--------------------------------------- / ------------------------

Main Riff/Intro (Heavy)(Guitar 2)
                                           Every 2nd Time Play
D-------5--5-3--3-2--2-1-1-0-0---------- / --5--5-3--3-2--2---
A-------5--5-3--3-2--2-1-1-0-0---------- / --5--5-3--3-2--2---
D--------------------------------------- / -------------------
G--------------------------------------- / -------------------
B--------------------------------------- / -------------------
E--------------------------------------- / -------------------

Pre-Chorus

D-------5-----3-----2-----1-----0-----5-----7-----8-----9-----10-----
A-------5-x8--3-x8--2-x8--1-x4--0-x4--5-x8--7-x8--8-x8--9-x4--10-x4--
D--------------------------------------------------------------------
G--------------------------------------------------------------------
B--------------------------------------------------------------------
E--------------------------------------------------------------------

Chorus

D-------5---3---2---1---0---------------
A-------5---3---2---1---0---------------
D---------------------------------------
G---------------------------------------
B---------------------------------------
E---------------------------------------
         Down In Mex-i-co

End On

D---0---
A---0---
D---0---
G-------
B-------
E-------

Break-Down
Intro/Main Riff x4 (Palm-Muted)
Intro/Main Riff(Guitar 1)(Heavy)x4 (Guitar 2 Comes In After x2)
Intro/Main Riff x8 (Palm-Muted) (Guitar 2 Lightly Enters After x4)
Pre-Chorus x2
Chorus x1
Intro/Main Riff(Guitar 1)(Heavy)x4 (Guitar 2 Comes In After x2)
Intro/Main Riff x8 (Palm-Muted) (Guitar 2 Lightly Enters After x4)
Pre-Chorus x2
Chorus x1
Intro/Main Riff x8 (Palm-Muted) (Pre-Chorus x1 After 4x)
Chorus x1
End On





Comments


Popular Unsigned tabs & chords
Comet People To You - I Smell Bait Bass Tabs
Evapora - Chase Bass Tabs
Finalnotice - Song Bass Tabs
Lsd Lucy - The Final Beginning Bass Tabs
No Name - No Name Band Bass Tabs
Alloftheabove - Our Friend Jim Tabs
Apu - GeräUschesong Tabs
Floor 13 - Overdosed Relationship Tabs
Insubordination - No Assistance Required Tabs
Levy Grind-Tell Me Tabs


Song lyrics



↑ Back to top | Tablatures and chords are parodies/interpretations of the original songs. You may use it for private study, scholarship, research or language learning purposes only
© 2014 AZChords.com Contact us | Privacy policy | DMCA | Add/correct tabs | Request tabs | Top 50 tabs