» » »

Unsigned, For What Its Worth Tabs (ver.1)

Artists:  A B C D E F G H I J K L M N O P Q R S T U V W X Y Z # 

For What Its Worth Tabs (ver.1)

Unsigned Tabs
 Rating:
4/5 (4 votes)
For What Its Worth lessons Tabs too difficult? Try these video lessons and learn fast
                Intro(Distortion)

E------------------------------------------------------------------------
B------------------------------------------------------------------------
G------------------------------------------------------------------------
D—55—-87--33—-87—-11—87—3333-5555-0—55—87—33-----------------------------
A—55------33 -----11----------------55----33-----------------------------
D—55 -----33------11----------------55----33----------------------------- 

                          Verse(distortion)
E-------------------------------------------------------------------------
B-------------------------------------------------------------------------
G-------------------------------------------------------------------------
D—87—-11—-87—3333-5555-----55555—88878-33333—88---------------------------
A-----11-------------------55555------ 33333------------------------------
D-----11-------------------55555-------33333------------------------------

                                 Chorus(distortion)
E------------------------------------------------------------------------
B------------------------------------------------------------------------
G------------------------------------------------------------------------
D-----873—11111-88875-3333-5555---5555—--8888-0-1111---------------------
A-------- 11111-------------------5555---8888-0-1111---------------------
D-------- 11111-------------------5555---8888-0-1111---------------------

                 Breakdown(distortion)
E--------------------------------------------------------------------------
B--------------------------------------------------------------------------
G--------------------------------------------------------------------------
D-1111—--33-00----------8-----8----8-------7-----7------7------------------
A-1111---33-00-------------------------------------------------------------
D-1111---33-00------555---555---55—----333-- 333---- 33--------------------


E---------------------------------------------------------------------------
B---------------------------------------------------------------------------
G---------------------------------------------------------------------------
D-----3------3-----3-------3-----3-----3/5-----8-------8--------------------
A---------------------------------------------------------------------------
D-111----111----11-----111---111---11------555-----555----------------------






E---------------------------------------------------------------------------
B---------------------------------------------------------------------------
G---------------------------------------------------------------------------
D-----8----7-----7----7-----3-----3----3-----3-----3-----3/5----------------
A---------------------------------------------------------------------------
D-55---333---333---33---111—--111—--11---111---111----11--------------------

   Solo(distortion)                                         
E---------------------------------------------------------------------------
B-----------10-11------------------------10-11------------------------------
G—12121212------------101010-12121212-----------101010-12121212-------------
D---------------------------------------------------------------------------
A---------------------------------------------------------------------------
D---------------------------------------------------------------------------


E----------------------------------------------------------------------------
B-10-11-11-11-11-13-13-13-13-11-13/15-15-15-15-13-13-13-13
G----------------------------------------------------------------------------
D----------------------------------------------------------------------------
A----------------------------------------------------------------------------
D----------------------------------------------------------------------------
            
Submit corrections

comments powered by Disqus
↑ Back to top | Unsigned Tabs for For What Its Worth. Lyrics for acoustic guitar and electric guitar. Tablatures and chords are parodies/interpretations of the original songs. You may use it for private study, scholarship, research or language learning purposes only