» » »

Unsigned, Forever Falls Tomorrow Tabs (ver.1)

Artists:  A B C D E F G H I J K L M N O P Q R S T U V W X Y Z # 

Forever Falls Tomorrow Tabs (ver.1)

Unsigned Tabs
 Rating:
4/5 (4 votes)
Forever Falls Tomorrow lessons Tabs too difficult? Try these video lessons and learn fast
                Verse

Guitar 1
--------5------7-------8-------7------5------7-------8-------7-------8-------7-----5------7--------8-------7-------5------7-------
------5--5---5--5---5----5---5--5---5--5---5---5---5---5---5---5---5---5---5---5---5--5--5--5----5---5---5---5---5---5--5---5-----
----5------5-------5-------5------5------5-------5-------5-------5-------5-------5------5------5-------5------5-------5------5----

Guitar 2
------------------------------------------------------------
The Chord is this, listen for------------------------------- appropriate-------------------------------------------------  timing------------------------------------------------------
7~----------------------------------------------------------
5~----------------------------------------------------------
5~----------------------------------------------------------

CHORUS
5555555555555555555----77777777777777----88888888888888------------
5555555555555555555----77777777777777----88888888888888------------
5555555555555555555----77777777777777----88888888888888------------

5555555555555555555----88888888888888----77777777777777------------
5555555555555555555----88888888888888----77777777777777------------
5555555555555555555----88888888888888----77777777777777------------

Guitar 1
--------5------7-------8-------7------5------7-------8-------7-------8-------7-----5------7--------8-------7-------5------7-------
------5--5---5--5---5----5---5--5---5--5---5---5---5---5---5---5---5---5---5---5---5--5--5--5----5---5---5---5---5---5--5---5-----
----5------5-------5-------5------5------5-------5-------5-------5-------5-------5------5------5-------5------5-------5------5----

Guitar 2
------------------------------------------------------------
The Chord is this, listen for------------------------------- appropriate-------------------------------------------------  timing------------------------------------------------------
7~----------------------------------------------------------
5~----------------------------------------------------------
5~----------------------------------------------------------


BRIDGE
Guitar 1+2
5~~--------------0~----------------3~--------1-111-1-111-----------X2-----
5~~--------------0~----------------3~--------1-111-1-111------------------
5~~--------------0~----------------3~--------1-111-1-111------------------
                                                     ^Palm Mute 

Guitar 1

-----------------------------------------------------------X4-------------
-----8/7---------8/7---------8/7---------8/7------33-33-------------------
55-55-------55-55------55-55------55-55-----------11-33-------------------
55-55-------55-55------55-55------55-55--------------33-------------------
P.M.        P.M.      P.M.      P.M.

Guitar 2
-----------------------------------------------------------X4-------------
-----8/7---------8/7---------8/7---------8/7------33-33-------------------
55-55-------55-55------55-55------55-55-----------33-33-------------------
55-55-------55-55------55-55------55-55-----------33-33-------------------
P.M.        P.M.      P.M.      P.M.



Guitars 1+2
--55555555555555555--0000000000000000000--3333333333333333333--1111111111111111111----------
--55555555555555555--0000000000000000000--3333333333333333333--1111111111111111111----------
--55555555555555555--0000000000000000000--3333333333333333333--1111111111111111111----------



Guitar 1
5~~--------------0~----------------3~---------------1~----------------------------------------------------------
5~~--------------0~----------------3~---------------1~----------------------------------------------------------
5~~--------------0~----------------3~---------------1~----------------------------------------------------------

Guitar 2
5~~--------------0~----------------3~--------1-111-1-111---------X2---------------------------------------------
5~~--------------0~----------------3~--------1-111-1-111--------------------------------------------------------
5~~--------------0~----------------3~--------1-111-1-111--------------------------------------------------------

Both
1///5------8-----7----5----7-----8-----7----5-----7----5----7-----8----7----5----7-----8-----7------------------
1///5---------------------------------------------------------------------------------------------------------X2
1///5----55----55---55---55----55----55---55----55---55---55----55---55---55---55----55----55-------------------
              P.M. The Low D at the end

Its an easy song and very catchy. Hopefully hear it one day.
            
Submit corrections

comments powered by Disqus
↑ Back to top | Unsigned Tabs for Forever Falls Tomorrow. Lyrics for acoustic guitar and electric guitar. Tablatures and chords are parodies/interpretations of the original songs. You may use it for private study, scholarship, research or language learning purposes only