» » »

Unsigned, Fools Gold - Rich Tabs (ver.1)

Artists:  A B C D E F G H I J K L M N O P Q R S T U V W X Y Z # 

Fools Gold - Rich Tabs (ver.1)

Unsigned Tabs
 Rating:
4/5 (4 votes)
Fools Gold - Rich lessons Tabs too difficult? Try these video lessons and learn fast
                RHYTHM GUITAR
     
x - Palm mute
* - hold note


INTRO

e|------------------------------|
B|------------------------------|
G|------------------------------|  x4
D|-------4-4-4-4--7-7-7--9-9-9--|
A|-------4-4-4-4--7-7-7--9-9-9--|
E|--/14--2-2-2-2--5-5-5--7-7-7--|

VERSE

e|------------------------------|
B|------------------------------|
G|------------------------------|  x4
D|--x-x-4--x-x-4--x-x-7--x-x-9--|
A|--x-x-4--x-x-4--x-x-7--x-x-9--|
E|--x-x-2--x-x-2--x-x-5--x-x-7--|


e|-------------------------|
B|-------------------------|
G|-------------------------|  x4
D|--4-4-4-4--7-7-7--9-9-9--|
A|--4-4-4-4--7-7-7--9-9-9--|
E|--2-2-2-2--5-5-5--7-7-7--|

CHORUS

e|--------------------------------|
B|--------------------------------|
G|--------------------------------|  x3
D|--5-5-5-5-5-5-5-5--99-99-99-99--|
A|--5-5-5-5-5-5-5-5--99-99-99-99--|
E|--3-3-3-3-3-3-3-3--77-77-77-77--|

BASS SOLO PART FOR GUITAR

e|---------|
B|---------|
G|---------|
D|--4-4*---|
A|--4-4*---|
E|--2-2*---|


OUTRO

e|------------------------------------|
B|------------------------------------|
G|------------------------------------|
D|--4-4-4-4--7-7-7--9-9-9*------4-----|
A|--4-4-4-4--7-7-7--9-9-9*------4-----|
E|--2-2-2-2--5-5-5--7-7-7*------2-----|
            
Submit corrections

comments powered by Disqus
↑ Back to top | Unsigned Tabs for Fools Gold - Rich. Lyrics for acoustic guitar and electric guitar. Tablatures and chords are parodies/interpretations of the original songs. You may use it for private study, scholarship, research or language learning purposes only