» » »

Final Thought - Regardless Tabs (ver.1)

Artists:  A B C D E F G H I J K L M N O P Q R S T U V W X Y Z # 

Final Thought - Regardless Tabs (ver.1)

Unsigned
Rating:
0/5 (0 votes)

Hard to play? Try these video lessons and learn fast.
                Intro

 E--------------------------------------------
 B--------------------------------------------
 G--5-----------------------------------------
 D--5--6p7h6--5--6p7h6--7--6p7h6--3--6p7h7----
 A--3---------5---------7---------3-----------
 e------------3---------5---------1---------x2

Verse

 E-------------------------------------
 B-------------------------------------
 G--555555-----------------------------
 D--555555--555555--777777--333333-----
 A--333333--555555--777777--333333-----
 e----------333333--555555--111111---x2
pm  .. ..   .. ..   .. ..   .. ..

Pre Chorus

 E-------------------------------------
 B-------------------------------------
 G----------------------5---5----------
 D-2222222222222222-----5-5-5-5~-------
 A-2222222222222222-----3-5-3-5~-------
 e-0000000000000000-------3---3~-------
pm ................

Chorus

 E---------------------------------------------------------------------
 B---------------------------------------------------------------------
 G--555555--------------------------555555--999999---------------------
 D--555555--555555--777777--333333--555555--999999--777777--333333-----
 A--333333--555555--777777--333333--333333--777777--777777--333333-----
 e----------333333--555555--111111------------------555555--111111---x2

Verse

 E-------------------------------------
 B-------------------------------------
 G--555555-----------------------------
 D--555555--555555--777777--333333-----
 A--333333--555555--777777--333333-----
 e----------333333--555555--111111---x2
pm  .. ..   .. ..   .. ..   .. ..

Pre Chorus

 E-------------------------------------
 B-------------------------------------
 G----------------------5---5----------
 D-2222222222222222-----5-5-5-5~-------
 A-2222222222222222-----3-5-3-5~-------
 e-0000000000000000-------3---3~-------
pm ................

Chorus

 E---------------------------------------------------------------------
 B---------------------------------------------------------------------
 G--555555--------------------------555555--999999---------------------
 D--555555--555555--777777--333333--555555--999999--777777--333333-----
 A--333333--555555--777777--333333--333333--777777--777777--333333-----
 e----------333333--555555--111111------------------555555--111111---x2

Bridge

 E------------------------------------------
 B------------------------------------------
 G------------------------------------------
 D----666777---666777---666777---666777-----
 A-555------777------999------444-----------
 e----------------------------------------x6
pm ...      ...      ...      ...

on the 4th time, play without palm mute

Chorus

 E---------------------------------------------------------------------
 B---------------------------------------------------------------------
 G--555555--------------------------555555--999999---------------------
 D--555555--555555--777777--333333--555555--999999--777777--333333-----
 A--333333--555555--777777--333333--333333--777777--777777--333333-----
 e----------333333--555555--111111------------------555555--111111---x4

End on

 E-----------------------------------------------------------------
 B-----------------------------------------------------------------
 G--5-----------------------------5------9---------------------2~--
 D--5-6h7--5-6h7--7-6h7--3-6h7----5-6h7--9-6h7--7-6h7--3-6h7---2~--
 A--3------5------7------3--------3------7------7------3-------0~--
 e---------3------5------1----------------------5------1-----------
            
Hard to play? Try these video lessons and learn fast. | Correct




comments powered by Disqus
↑ Back to top | Tablatures and chords are parodies/interpretations of the original songs. You may use it for private study, scholarship, research or language learning purposes only