>
 >
Field Dont Bother

Field Dont Bother Guitar Tabs

Unsigned - Field Dont Bother chords, tabs, tablatures, lyrics

Guitar lessons | Add/correct | Request | Top 50 tabs Artists:  A B C D E F G H I J K L M N O P Q R S T U V W X Y Z 0-9

Field Dont Bother Guitar Tabs – Unsigned

CD, Sheet music, Poster

Do you like Field Dont Bother? Share with your friends now
Tabs
DONT BOTHER 
INTRO: 
e|-------|-------------------------------------|
B|-------|-------------------------------------|
G|-------|-----------55555555------------------|
D|--12\\-|-22222222--55555555--55555555--------|
A|--12\\-|-22222222--33333333--55555555--------|
E|--12\\-|-00000000------------33333333--------|
P.M ~~~~~~~~~~~~~~~~~~~~~~~~~~~~~~~~~~~~~~~~~~~


e|-----------------------------|
B|-----------------------------| x2
G|-----------------------------|
D|--444-55-44-5----------------|
A|--444-55-44-5----------------|
E|--222-33-22-3----------------|
P.M ~~~~~~~~~~~~~~~~~~~~~~~~~~~


e|--------------------------------------------|
B|--------------------------------------------|
G|------------55555555------------------------|
D|--22222222--55555555---55555555--77777777---|
A|--22222222--33333333---55555555--77777777---|
E|--00000000-------------33333333--55555555---|
P.M ~~~~~~~~~~~~~~~~~~~~~~~~~~~~~~~~~~~~~~~~~~


e|--------------------------------|
B|--------------------------------|
G|-----------55555555//7~~~7-7----|
D|-22222222--55555555//7~~~7-7----|
A|-22222222--33333333//5~~~5-5----|
E|-00000000-----------------------|
P.M ~~~~~~~~~~~~~~


VERSE: 
e|--------------------------------|
B|--------------------------------|
G|-------5-5----------------------|
D|-2-2---5-5--5-5---4--5--4-------|
A|-2-2---3-3--5-5---4--5--4-------|
E|-0-0--------3-3---2--3--2-------|


e|----------------------------------|
B|----------------------------------|
G|------5-5--5//7~~777777-----------|
D|-2-2--5-5--5//7~~777777-----------|
A|-2-2--3-3--3//5~~555555-----------|
E|-0-0------------------------------|
^ ^ ^ ^ ^ P.M~~~~~~~ 


e|--------------------------------------------|
B|--------------------------------------------|
G|-------------55555555-----------------------|
D|---22222222--55555555--55555555-------------|
A|---22222222--33333333--55555555-------------|
E|---00000000------------33333333-------------|
P.M ~~~~~~~~~~~~~~~~~~~~~~~~~~~~~~~~~~~~~


e|-----------------------------|
B|-----------------------------|
G|-----------------------------|
D|--444-55-44-5----------------|
A|--444-55-44-5----------------|
E|--222-33-22-3----------------|
P.M ~~~~~~~~~~~~~~~~~~~~~~~~~~~


e|--------------------------------|
B|--------------------------------|
G|-----------55555555//7~~~7-7----|
D|-22222222--55555555//7~~~7-7----|
A|-22222222--33333333//5~~~5-5----|
E|-00000000-----------------------|
P.M ~~~~~~~~~~~~~~


CHORUS: 
e|----------------------------------------|
B|----------------------------------------|
G|--------------55555555------------------|
D|----22222222--55555555--55555555--------|
A|----22222222--33333333--55555555--------|
E|----00000000------------33333333--------|


e|-----------------------------|
B|-----------------------------| x2
G|-----------------------------|
D|--444-55-44-5----------------|
A|--444-55-44-5----------------|
E|--222-33-22-3----------------|


E|--------------------------------------------|
B|--------------------------------------------|
G|------------55555555------------------------|
D|--22222222--55555555---55555555--77777777---|
A|--22222222--33333333---55555555--77777777---|
E|--00000000-------------33333333--55555555---|


e|------------------------------------------|
B|------------------------------------------|
G|-----------55555555//7777777777777777-----|
D|-22222222--55555555//7777777777777777-----|
A|-22222222--33333333//5555555555555555-----|
E|-00000000---------------------------------|


INTERLUDE: 
e|---------------------------|
B|---------------------------|
G|--------5-5---------7-7----|
D|--2~~---5-5---2~~---7-7----|
A|--2~~---3-3---2~~---5-5----|
E|--0~~---------0~~----------|


POWER CHORD CHORUS: 
e|----------------------------------------------|
B|----------------------------------------------|
G|---777777777//99\\555555555//77\\44444444-----|
D|---777777777//99\\555555555//77\\44444444-----|
A|---555555555//77\\333333333//55\\22222222-----|
E|----------------------------------------------|


e|------------------------|
B|------------------------|
G|------555--444----------| x2
D|-5555-555--444----------|
A|-5555-333--222----------|
E|-3333-------------------|


SEQUENCE: 
Intro
Chorus
Verse
Chorus
Verse
Chorus
Interlude
Power Chord Chorus
Chorus
Outro






Copyright 2003 - 2004 © field.8m.com. Site designed by James





Comments


Popular Unsigned tabs & chords
El Diablo - Untitled Bass Tabs
Jack In The Green-Christmas Is Cancelled Bass Tabs
Rysinth - Smash Body Bass Tabs
The Posers - A New Hate Bass Tabs
3-Legged Dog Tabs
Bananafish~Fillet-Funk Tabs
Blood Never Drys - A Thank-You Letter Tabs
Faded 2 Black - Void Spaces Tabs
Hindered Youths - Four Leaf Clover Tabs
Kkkl Tabs


Song lyrics



↑ Back to top | Tablatures and chords are parodies/interpretations of the original songs. You may use it for private study, scholarship, research or language learning purposes only
© 2014 AZChords.com Contact us | Privacy policy | DMCA | Add/correct tabs | Request tabs | Top 50 tabs