» » »

Ffl-For The Alanarchist Tabs (ver.1)

Artists:  A B C D E F G H I J K L M N O P Q R S T U V W X Y Z # 

Ffl-For The Alanarchist Tabs (ver.1)

Unsigned
Rating:
0/5 (0 votes)

Hard to play? Try these video lessons and learn fast.
                standard
(my own work, a little something, nothing fancy)
-------------------------------------------------------
-------------------------------------------------------
----0---0---0---0--------------------7-7--7-7----------
---9---9---9---9---9-9--9---5---5---7-7--7-7---7-7--7-7
--9---9---9---9---9-9--9-9-5-5-5-5-5----5-----7-7--7-7-
-7---7---7---7---7----7---3---3--------------5----5----


-------------------------------------------------------
-------------------------------------------------------
----0---0---0---0--------------------7-7--7-7----------
---9---9---9---9---9-9--9---5---5---7-7--7-7---7-7--7-7
--9---9---9---9---9-9--9-9-5-5-5-5-5----5-----7-7--7-7-
-7---7---7---7---7----7---3---3--------------5----5----


-------------------------------------------------------
-------------------------------------------------------
----0---0---0---0--------------------7-7--7-7----------
---9---9---9---9---9-9--9---5---5---7-7--7-7---7-7--7-7
--9---9---9---9---9-9--9-9-5-5-5-5-5----5-----7-7--7-7-
-7---7---7---7---7----7---3---3--------------5----5----


-------------------------------------------------------
-------------------------------------------------------
----0---0---0---0--------------------------------------
---9---9---9---9---9-9--5-5----------------------------
--9---9---9---9---9-9--5-5--7-9-10---------------------
-7---7---7---7---7----3----5-7-8-----------------------


-------------------------------------------------------
-------------------------------------------------------
----0---0---0---0---------------------0---0---0---0----
---9---9---9---9---9-9--5-5----------9---9---9---9-----
--9---9---9---9---9-9--5-5--7-9-10--9---9---9---9------
-7---7---7---7---7----3----5-7-8---7---7---7---7-------
            
Hard to play? Try these video lessons and learn fast. | Correct




comments powered by Disqus
↑ Back to top | Tablatures and chords are parodies/interpretations of the original songs. You may use it for private study, scholarship, research or language learning purposes only