» » »

Fernands Band - Uniform School Tabs (ver.1)

Artists:  A B C D E F G H I J K L M N O P Q R S T U V W X Y Z # 

Fernands Band - Uniform School Tabs (ver.1)

Unsigned
Rating:
0/5 (0 votes)

Tabs too difficult? Try these video lessons and learn fast.
                THIS IS MY BEST FRIEND'S BAND, FERNAND, AND I THOUGHT IT WOULD BE NICE TO TAB IT FOR HIM. I WILL BE TABBING OTHER SONGS FROM HIM.


[Band name: Fernand's Band]






[Est. 2003]





[Song title: Uniform School]




Guitar: Roberto Diego
Bass:   Santiago Martinez
Drums:  Raul Vasquez
Vocals: Fernand Garcia



Intro

e -------
B -------
G -------
D ---2----       X 6
A -4-2-0------
E -4---0-1-1--


Riff1

e
B
G
D -----6--------4-----------------0-0-0-0-0-0
A -----6--------4-----------------0-0-0-0-0-0
E -0-0---1-2-3-----1-3-3-4-3-1-2--0-0-0-0-0-0
                                |_._._._._._.__|


Chorus

e-----------
B-----------
G-----------
D------0----------   X 6
A--4-2-0--------
E--------1-1-1-2

Riff2

e---0--------
B-----2-------
G-------2------
D----------1----0000000000000000
A---------------0000000000000000
E----------------------------------1-1-2


End

e--------------------2------0-0-
B------------------2---3----0-0-
G-----------1---------------0-0-
D---------1----2------------0-0-
A----0----------------------0-0-
E--0---1--------------------0-0-


ORDER

INTRO X6
RIFF 1
CHORUS X6
RIFF 2
CHORUS X6
END



THANK YOU. OUR BAND HAS PLAYED IN LOTS OF NEIGHBORHOODS.
            
Tabs too difficult? Try these video lessons and learn fast.




comments powered by Disqus
↑ Back to top | Tablatures and chords are parodies/interpretations of the original songs. You may use it for private study, scholarship, research or language learning purposes only