» » »

Unsigned, Fernands Band - Hate Tabs (ver.1)

Artists:  A B C D E F G H I J K L M N O P Q R S T U V W X Y Z # 

Fernands Band - Hate Tabs (ver.1)

Unsigned Tabs
 Rating:
4/5 (4 votes)
Fernands Band - Hate lessons Tabs too difficult? Try these video lessons and learn fast
1
                [Fernand's Band]




[2003]




[Song title: Hate]




Guitar: Roberto Diego
Bass:   Santiago Martinez
Drums:  Raul Vasquez
Vocals: Fernand Garcia



(Note: Choruses are played different and will be named chorus1,2,etc.)

Intro (Played fast>>>>>>>>>>>>with distortion.)

e----------------
B----------------
G----------------
D----------------
A-----------------------------------------------17-17-17/19
E--12-13-14-13-14-12-13-14-13-14-12-13-14-13-14-17-17-17/19


Riff

e-------------
B-------------
G-------------
D-------------
A-----3-3-4------
E-7/9-3-3-4-5-6-------

Riff

e-------------------------
B-------------------------
G-------------------------
D--------4-0----------2------
A------2------4-4---2---4------
E-15~-------------0-------0----

Chorus 1

e-----------
B-----------
G-4-5-6-6-6------    X5
D-4-5-6-6-6------
A-2-3-4--------
E-0-1-2--------

Riff

e-------------
B-------------
G-------------
D------3-3------ X8
A-------------
E-5-5-------0----

Riff

e--------------------
B--------------------
G--------------------
D--------------------        X4
A--7--9-----7---9--------
E---7---4-4---7---4-4------

Chorus 2

e-------
B-------
G-6-6-8-9-9----------9--7--
D--6-7-8---9-------9-----4--6-9
A------------9-9-9--------
E-------

Chorus 3

e----------------
B----------------
G----------------
D-----9-9-----9-----
A-7-------9-----5--5-5-5---6-5-5
E---8-------9-----5------7-------4

Riff

e--------------
B--------------
G--------------         X5
D--------------
A--5-5---6-6--------
E------4--------

Outro

e----------------------
B----------------------
G----------------------
D----------------------
A----0---0---0---0---0---0---0
E--0-0-0-0-0-0-0-0-0-0-0-0-0-0-0
            
Submit corrections

comments powered by Disqus
↑ Back to top | Unsigned Tabs for Fernands Band - Hate. Lyrics for acoustic guitar and electric guitar. 1 Tablatures and chords are parodies/interpretations of the original songs. You may use it for private study, scholarship, research or language learning purposes only