» » »

Fernands Band - Backstab Tabs (ver.1)

Artists:  A B C D E F G H I J K L M N O P Q R S T U V W X Y Z # 

Fernands Band - Backstab Tabs (ver.1)

Unsigned
Rating:
0/5 (0 votes)

Hard to play? Try these video lessons and learn fast.
                [Fernand's Band]




[2003]



[Song title: Backstab]




The bass and drums do the work in this.




LOTS OF DISTORTION



Intro

e
b--------------
g--------------
d--------------       X3
a---0--0--0-------
e-1--1--1--1-------


main riff

e------------
b------------
g------------
d------------          X 4
a--1--3--3-3-1-0---
e--1--5--3-3-1-0---


chorus

e---------
b----------
g-------0-----
d-----8-------      X6
a---7-----------3
e-6--------5-5--2


riff

e------------
b------------
g------------
d-17-15----------              X2
a-17-15-0----------12-----
e-17-15-0--19-19-12---12--0


riff

e------------
b------------
g------------             X4
d-7--5--3-0--2-3-1--
a-7--5--3-0--2-3-1--
e-5--3--1-0--0-3-1--

chorus

e---------
b----------
g-------0-----
d-----8-------      X6
a---7-----------3
e-6--------5-5--2

main riff

e------------
b------------
g------------
d------------          X 4
a--1--3--3-3-1-0---
e--1--5--3-3-1-0---

outro

e-0000-------3333--------
b------1111-------4444---0-1-4~
g------------------------0-1-4~
d------------------------0-1-4~
a------------------------0-1-4~
e----------------------------------6~
            
Hard to play? Try these video lessons and learn fast. | Correct




comments powered by Disqus
↑ Back to top | Tablatures and chords are parodies/interpretations of the original songs. You may use it for private study, scholarship, research or language learning purposes only