» » »

Unsigned, F.A.T.H - Warfield Tabs (ver.1)

Artists:  A B C D E F G H I J K L M N O P Q R S T U V W X Y Z # 

F.A.T.H - Warfield Tabs (ver.1)

Unsigned Tabs
 Rating:
4/5 (4 votes)
F.A.T.H - Warfield lessons Tabs too difficult? Try these video lessons and learn fast
1
                -[HomeGrown]-
drop D

intro (riff 1)                 (riff 2)
|-----------------------|  |---------------------|
|-----------------------|  |---------------------|
|-----------------------|  |---------------------|
|-2-0-3-0-2-0-3-0-32-00-|  |-2-0-3-0-2-0-3-321-0-|
|-2-0-3-0-2-0-3-0-32-00-|  |-2-0-3-0-2-0-3-321-0-|
|-2-0-3-0-2-0-3-0-32-00-|3x|-2-0-3-0-2-0-3-321-0-|1x
repeat both reefs 2x

 riff 3
|--------------------------------------|
|--------------------------------------|
|--------------------------------------|
|-2-0-2-0-321-0-2-0-2-0-32-1-----------|
|-2-0-2-0-321-0-2-0-2-0-32-1-----------|
|-2-0-2-0-321-0-2-0-2-0-32-1-let ring--|

verse(riff 1 P.M)

chorus
|---------------------|
|---------------------|
|---------------------|
|-2-0-3-0-2-0-3-0-6---|
|-2-0-3-0-2-0-3-0-6---|
|-2-0-3-0-2-0-3-0-6---|8x

verse(riff 1 p.m)

riff 4
|---------------|
|---------------|
|---------------|
|-2-0-2-0-3-----|
|-2-0-2-0-3-----|
|-2-0-2-0-3-----|4x

chorus

bridge
|------------------------------------|
|------------------------------------|
|------------------------------------|
|-2222222222222-333333333--6666------|
|-2222222222222-333333333--6666------|
|-2222222222222-333333333--6666------|
            
Submit corrections

comments powered by Disqus
↑ Back to top | Unsigned Tabs for F.A.T.H - Warfield. Lyrics for acoustic guitar and electric guitar. 1 Tablatures and chords are parodies/interpretations of the original songs. You may use it for private study, scholarship, research or language learning purposes only