» » »

F.A.T.H - F.A.T.H Tabs (ver.1)

Artists:  A B C D E F G H I J K L M N O P Q R S T U V W X Y Z # 

F.A.T.H - F.A.T.H Tabs (ver.1)

Unsigned
Rating:
0/5 (0 votes)

Hard to play? Try these video lessons and learn fast.
                band ; FLUNKSTA
wrote: kamal  a.k.a K@rmBink 

INTRO
E|---------------------------------|
B|---------------------------------|
G|---------------------------------|
D|---------------------------------|
A|----6-5--------------------------|
D|-00-----0-6-5-00-3-5--0-6-5-3-0--|X2
  [--------------PM--------------]

CH0RUS
E|-------------------------------------|
B|-------------------------------------|
G|-------------------------------------|
D|----8-7------------------------------|
A|-00-6-5-0-6-5--00--3-5-0-6-5-3-0-----|
D|-00-----0-6-5--00--3-5-0-6-5-3-0-----|4X

VERSE
E|---------------------------------------|
B|---------------------------------------|
G|---------------------------------------|
D|---------------------------------------|
A|-00--5-00-00-5h6p5-00--3-000-5--0-0-6--|
D|-00----00-00-------00--3-000-5--0-0-6--|4X
   [pm]  [.pm]      [pm]   [pm]  [.pm]

CHORUS

VERSE

CHORUS

BASS SOLO
G|---------------------------------|
D|---------------------------------|
A|----6-5--------------------------|
D|-00-----0-6-5--00-3-5-0--6-5-6-0-|2X

BRIDGE (GUITAR SOLO)
E|-----------------------|
B|-----------------------|
G|-----------------------|
D|-77-8-77-88-10-11------|
A|-55-6-55-66-8--9-------|
D|-----------------------|8X

BRIDGE (VER GANAZ..)
E|-----------------|
B|-----------------|
G|-----------------|
D|-----------------|
A|-00-1-00-11-34---|
D|-00-1-00-11-34---|

CHORUS....



...i would to take this moment to thank our guitarist Kamal for his song and tabs.
...feel free check our other songs...
            
Hard to play? Try these video lessons and learn fast. | Correct




comments powered by Disqus
↑ Back to top | Tablatures and chords are parodies/interpretations of the original songs. You may use it for private study, scholarship, research or language learning purposes only