» » »

F.A.T.H - Cross Section Tabs (ver.1)

Artists:  A B C D E F G H I J K L M N O P Q R S T U V W X Y Z # 

F.A.T.H - Cross Section Tabs (ver.1)

Unsigned
Rating:
0/5 (0 votes)

Hard to play? Try these video lessons and learn fast.
                wrote by:aFiq

intro     (RIFF 1)                    (RIFF 2)
E|-----------------------|   |-----------------------|
B|-----------------------|   |-----------------------|
G|-----------------------|   |-----------------------|
D|-7777-5555-8888--33333-|   |-7777-5555-888-33-8-10-|
A|-5555-3333-6666--11111-|   |-5555-3333-666-11-6/8--|
D|-----------------------|4X |-----------------------|

CHORUS
E|------------------------------------------------------|
B|------------------------------------------------------|
G|------------------------------------------------------|
D|-----7-----555-----7----88-----7----55-----77---------|
A|-----5-----333-----5----66-----5----33-----55----1111-|
D|-000---000-----000---00----000---00----000----00-1111-|

VERSE (RIFF 1 & 2)

CHORUS

VERSE (RIFF 1 & 2)

CHORUS

VERSE                                     RIFF 3
|-------------------------||----------------------------------------|
|---                   ---||----------------------------------------|
|-    RIFF (PLAY 2X)     -||----------------------------------------|
|---                   ---||--777--11-11-11-888-555-777-11-11-33-88-|
|-------------------------||--555--9--9--9--666-333-555-9--9--11-66-|
|-------------------------||----------------------------------------|
            
Hard to play? Try these video lessons and learn fast. | Correct




comments powered by Disqus
↑ Back to top | Tablatures and chords are parodies/interpretations of the original songs. You may use it for private study, scholarship, research or language learning purposes only