» » »

Unsigned, F.A.T.H - Close To Home Tabs (ver.1)

Artists:  A B C D E F G H I J K L M N O P Q R S T U V W X Y Z # 

F.A.T.H - Close To Home Tabs (ver.1)

Unsigned Tabs
 Rating:
4/5 (4 votes)
F.A.T.H - Close To Home lessons Tabs too difficult? Try these video lessons and learn fast
                Drop D


intro/verse
|----------------------------------|--------------------------------|
|----------------------------------|--------------------------------|
|----------------------------------|--------------------------------|
|----------------------------------|--------------------------------|
|-000-5-00005h6p5000-5-000-5-00----|-000-5-0000-565-00-5-0000---1---|
|-000---0000-----000---000---00----|-000---0000-----00---0000-1-----|

chorus
|--------------------------------|
|--------------------------------|
|----7------7-8-7----7-----7--8--|
|----7------7-8-7----7-----7--8--|
|----5------5/6/5----5-----5--6--|
|000---0000------000---000--00---|

verse

bridge
|---------------------------|
|---------------------------|
|---------------------------|
|-000000000----000000-1-----|
|-000000000-5*-000000-1-----|
|-000000000----000000-1-----|4x
 [---pm---]   [--pm--]

|------------------------------------|      |------------------------------------|
|------------------------------------|      |------------------------------------|
|------------------------------------|      |------------------------------------|
|------------------------------------|      |------------------------------------|
|------------------------------------|      |-000-1-0000-1h3p1-000-1-000-1-00-3--|
|-000-1-0000-1h3p1-000-1-000-1-00-3--|4x(pm)|-000-1-0000-1h3p1-000-1-000-1-00-3--|


|--------------------------|-----------------------------|
|--------------------------|-----------------------------|
|--------------------------|-----------------------------|
|--------------------------|-----------------------------|
|-----5------6----5--------|-----5------6-----5--------1-|
|-000---0000--000---0000-1-|-000---0000---000---0000-1---|

chorus 2x till fade
            
Submit corrections

comments powered by Disqus
↑ Back to top | Unsigned Tabs for F.A.T.H - Close To Home. Lyrics for acoustic guitar and electric guitar. Tablatures and chords are parodies/interpretations of the original songs. You may use it for private study, scholarship, research or language learning purposes only