» » »

Unsigned, F.A.T.H - Betrayal Tabs (ver.1)

Artists:  A B C D E F G H I J K L M N O P Q R S T U V W X Y Z # 

F.A.T.H - Betrayal Tabs (ver.1)

Unsigned Tabs
 Rating:
4/5 (4 votes)
F.A.T.H - Betrayal lessons Tabs too difficult? Try these video lessons and learn fast
                drop d

             riff 1                                    riff 2
|----------------|---------------|       |--------------------------------|
|----------------|---------------|       |--------------------------------|            |----------------|---------------|       |--------------------------------|
|-00-------------|-11------------|       |-0-2-1-0-8-7-0-3-0-0-8-0-0-0-8--|
|-00-------------|-11------------|       |-0-2-1-0-8-7-0-3-0-0-8-0-0-0-8--|
|-00-5*-7*-3*----|-11-5*-7*-3*---|       |-0-2-1-0-8-7-0-3-0-0-8-0-0-0-8--|
VERSE
|--------------------------------|
|--------------------------------|
|--------------------------------|
|------------------------1-1-1---|
|------------------------1-1-1---|
|-0-8-7-0-3-00-8-00-3-00-1-1-1---|
 [--------p.m-----------]

INTRO RIFF 2
VERSE

CHORUS
|----------------------------------||------------------------------------|
|----------------------------------||------------------------------------|
|------------------777--5555--8888-||-----------------------777-555-888--|
|-333333-444444-00-777--5555--8888-||-33333-11111-66666-00--777-555-888--|
|-333333-444444-00-555--3333--6666-||-33333-11111-66666-00--555-333-666--|
|-333333-444444-00-----------------||-33333-11111-66666-00---------------|

VERSE

CHORUZ

INTERLUDE
|-------------------------|
|-------------------------|
|-------------------------|
|-------------------------|
|---5-6---5-----6--8--6---| 
|-0-----0---0-6------6----|

BRIDGE
|----------------------------|
|----------------------------|
|---7-888-333-88-------------|
|-0-7-888-333-88-10-10-------|
|-0-5-666-111-66-8--8--------|
|-0--------------------------|

CHORUS 2x
            
Submit corrections

comments powered by Disqus
↑ Back to top | Unsigned Tabs for F.A.T.H - Betrayal. Lyrics for acoustic guitar and electric guitar. Tablatures and chords are parodies/interpretations of the original songs. You may use it for private study, scholarship, research or language learning purposes only