» » »

Fast Food - Something Else Tabs (ver.1)

Artists:  A B C D E F G H I J K L M N O P Q R S T U V W X Y Z # 

Fast Food - Something Else Tabs (ver.1)

Unsigned
Rating:
0/5 (0 votes)

Hard to play? Try these video lessons and learn fast.
                Intro:
|------------------------------------------------------------------------------|
|-----5---------5--------5--------5------------------------------------------|
|---6---6----6---6----6---6-----6---6----------------------------------------|
|-4------------------0--------------------------------------------------------|x4
|-----------4-----------------------------------------------------------------|
|------------------------------5----------------------------------------------|

Verse:
|------------------------------------------------------------------------------|
|------------------------------------------------------------------------------|
|-0-0-0-----------0-0-0-----------------------------------------------------|
|-4-4-4---0-0-0---0-0-0------------------------------------------------------|x5
|---------4-4-4-----------0-0-0----------------------------------------------|
|-------------------------4-4-4-----------------------------------------------|

Chorus:
|----------------------------------------------------------------------|
|----------------------------------------------------------------------|
|----------------------------------------------------------------------|
|-9-9-9/7-7-7--9-9-9/5-5-5---------------------------------------------|x3
|-7-7-7/5-5-5--7-7-7/3-3-3---------------------------------------------|
|-7-7-7/5-5-5--7-7-7/3-3-3---------------------------------------------|
            
Hard to play? Try these video lessons and learn fast. | Correct




comments powered by Disqus
↑ Back to top | Tablatures and chords are parodies/interpretations of the original songs. You may use it for private study, scholarship, research or language learning purposes only