» » »

Unsigned, Fast Food - Chase Tabs (ver.1)

Artists:  A B C D E F G H I J K L M N O P Q R S T U V W X Y Z # 

Fast Food - Chase Tabs (ver.1)

Unsigned Tabs
 Rating:
4/5 (4 votes)
Fast Food - Chase lessons Tabs too difficult? Try these video lessons and learn fast
1
                Intro(Clear):
|-------------------------------------------------------------|
|-------------------------------------------------------------|
|-------------------------------------------------------------|
|-5-5-5---5-5-5-----------------------------------------------|
|-5-5-5---5-5-5-----------------------------------------------|
|-3-3-3---7-7-7-----------------------------------------------|

Intro/Chorus(Heavy Distortion):
|-------------------------------------------------------------|
|-------------------------------------------------------------|
|-------------------------------------------------------------|
|-5-5-5---7-7-7-----------------------------------------------|
|-5-5-5---7-7-7-----------------------------------------------|
|-3-3-3---5-5-5-----------------------------------------------|

Verse(Clear):
|-------------------------------------------------------------|
|-------------------------------------------------------------|
|-------------------------------------------------------------|
|-5-5-5---5-5-5-----------------------------------------------|
|-5-5-5---5-5-5-----------------------------------------------|
|-3-3-3---7-7-7-----------------------------------------------|

Interlude:
|-------------------------------------------------------------|
|--------------------------------------------------------------|
|--------------------------------------------------------------|
|-----5-------9-------5-------9-------7-------5-------7--------|
|---5---5---9---9---5---5---9---9---7---7---5---5---7---7------|
|-3-------7-------3-------7-------5-------3-------5------------|

Song Order:
Intro
Chorus
Verse
Chorus
Interlude
Chorus
            
Submit corrections

comments powered by Disqus
↑ Back to top | Unsigned Tabs for Fast Food - Chase. Lyrics for acoustic guitar and electric guitar. 1 Tablatures and chords are parodies/interpretations of the original songs. You may use it for private study, scholarship, research or language learning purposes only