» » »

Fall From Zero - School Punishment Bass tabs (ver.1)

Artists:  A B C D E F G H I J K L M N O P Q R S T U V W X Y Z # 

Fall From Zero - School Punishment Bass tabs (ver.1)

Unsigned
Rating:
0/5 (0 votes)

Hard to play? Try these video lessons and learn fast.
                School Punishment by Fall From Zero

- 5-string bass
- Standard tuning
- Distortion (Death metal, not wimpy) 
- x=dead note (put your finger anywhere on the string   lightly and pluck softly)
- ~=let it ring

Intro 1 (No distortion here)-
G|-----------------------------------------------------------------|
D|------x-----------x-----------x-----------x-------------0~-------|
A|----x---x-------x---x-------x---x-------x---x---------0~--0~-----|
E|--x-------x---x-------x---x-------x---x-------x-----0~------0~---|
B|x-----------x-----------x-----------x-----------x-0~----------0~-|

Chorus/Intro 2-
G|--------------------------------------|
D|--------------------------------------|
A|--------------------------------------|
E|--------------------------------------|
B|2-2-2-0-2-2-2-0-2-2-0-2-2-2-0-55550000|

Verse-
G|----|
D|----|
A|----|
E|----|
B|0232|

Interlude-
G|-0-0-2-2-0-0-3-3|
D|----------------|
A|----------------|
E|----------------|
B|----------------|

Structure:
-Part-   | -Time-
Intro 1  | x1
Intro 2  | x4
Verse    | x20
Chorus   | x6
Verse    | x20
Chorus   | x6
Verse    | x20
Interlude| x4
Verse    | x20
Chorus   | x6
End on B|-2~-|

Fall From Zero rocks!!!
            
Hard to play? Try these video lessons and learn fast. | Correct




comments powered by Disqus
↑ Back to top | Tablatures and chords are parodies/interpretations of the original songs. You may use it for private study, scholarship, research or language learning purposes only