» » »

Unsigned, Fallen Angel - My Little Freaks Bass tabs (ver.1)

Artists:  A B C D E F G H I J K L M N O P Q R S T U V W X Y Z # 

Fallen Angel - My Little Freaks Bass tabs (ver.1)

Unsigned Tabs
Rating:
0/5 (0 votes)
Hard to play? Try these video lessons and learn fast.
                My Little Freak
Unreleased
~- Let ring

[Verse]{Slow}
G|------------------
D|------------------
A|7-7--6-6--0-0-----
E|---------------7-7
[Chorus]{pt.1}
G|-------------------------------------------------
D|-------------------------------------------------
A|7--7-7-7-7~--------------------------------------
E|------------7--7-7-7-7~--9--9-9-9-9~--5--5-5-5-5~
[Chorus]{pt.2}
G|---------------------------------------------------------
D|---------------------------------------------------------
A|7-7-7-7-7-7-7--------------------------------------------
E|--------------7-7-7-7-7-7-7--9-9-9-9-9-9-9--5-5-5-5-5-5-5
[Bridge]
G|----------------------------------------------------------
D|----------------------------------------------------------
A|7-7-7-7-7-7-7--6-6-6-6-6-6-6--0-0-0-0-0-0-0--2-2-2-2-2-2-2
E|----------------------------------------------------------
That's it enjoy the song I wrote, I'll have my guitarist post the Guitar parts for the songs I've posted.
            

comments powered by Disqus
↑ Back to top | Unsigned Bass for Fallen Angel - My Little Freaks. Lyrics for acoustic guitar and electric guitar. Tablatures and chords are parodies/interpretations of the original songs. You may use it for private study, scholarship, research or language learning purposes only