» » »

Fal45 - Test Tabs (ver.1)

Artists:  A B C D E F G H I J K L M N O P Q R S T U V W X Y Z # 

Fal45 - Test Tabs (ver.1)

Unsigned
Rating:
0/5 (0 votes)

Hard to play? Try these video lessons and learn fast.
                FAL45
Test

Standard tuning

This riff is played over and over and over again.  During the verse, you palm mute the riff.

--------------------------------------
--------------------------------------
-5--5--5--5--5------------------------
-5--5--5--5--5--5---5--5--5-5---------
-3--3--3--3--3--5---5--5--5-5---------
-----------------3---3--3--3-3---------

--------------------------------------
--------------------------------------
--------------------------------------
-7--7--7--7-7----3--3--3--3-3---------
-7--7--7--7-7----3--3--3--3-3---------
-5--5--5--5-5----1--1--1--1-1---------


Solo:
--------------------------------------
--------------------------------------
-5--5--5----5----7--7---7--7-7--7-----
----------7----7----------------------
--------------------------------------
--------------------------------------

--------------------------------------
--------------------------------------
-9--9--9--9-9---5--5--5----5----------
-------------------------7------------
--------------------------------------
--------------------------------------

Violin:
E---------------------------------------------
A--e--e--e--e---d--d--d--d---c#--c#---c#---c#-
D---------------------------------------------
G---------------------------------------------

E--f--f--f--f----
A----------------
D----------------
G----------------

Piano:

Just mess around with these chords;

C G Am F

Bass:

Standard Tuning:
---------------------------------------------
---------------------------------------------
-3-3-3-3-------------------------------------
-----------3-3-3-3---5-5-5-5---1-1-1-1-------


Drums:
CIx----------------------------------
RI----x--x---x-----x---x---x----x-
SI----o-------o---------o---------o-
BIo------o----------o-------o-------

CI-------------------------------------
RIx----x--x---x-----x---x---x----x-
SI----o-------o---------o---------o--
BIo------o----------o-------o--------


"Sombrero Song"
Standard Tuning

Guitar:
------4-----6--------------4---------6-----------------------
4----4-----6----4----4---4----6----6----4----2----4------
4----2-----4----4----4---2----6----4----4----2----4------
2----------------2----2--------4----------2----0----2------


Bass:
---2----4--------------2--------4-----------------------------
2------------2----2---------4--------2----0---2--------------

Piano:

F#     B    C#     F#

F#     B     G#      C#

F#      E7    F#
            
Hard to play? Try these video lessons and learn fast. | Correct




comments powered by Disqus
↑ Back to top | Tablatures and chords are parodies/interpretations of the original songs. You may use it for private study, scholarship, research or language learning purposes only